ISO-10303-21;
HEADER;
FILE_DESCRIPTION (( 'STEP AP214' ),
    '1' );
FILE_NAME ('Axe.STEP',
    '2022-08-21T13:26:04',
    ( '' ),
    ( '' ),
    'SwSTEP 2.0',
    'SolidWorks 2020',
    '' );
FILE_SCHEMA (( 'AUTOMOTIVE_DESIGN' ));
ENDSEC;

DATA;
#1 = FILL_AREA_STYLE ('',( #321 ) ) ;
#2 = EDGE_CURVE ( 'NONE', #326, #274, #170, .T. ) ;
#3 = VECTOR ( 'NONE', #84, 1000.000000000000114 ) ;
#4 = FACE_OUTER_BOUND ( 'NONE', #332, .T. ) ;
#5 = ORIENTED_EDGE ( 'NONE', *, *, #7, .T. ) ;
#6 = CARTESIAN_POINT ( 'NONE',  ( 0.000000000000000000, 0.000000000000000000, 18.61180729995781036 ) ) ;
#7 = EDGE_CURVE ( 'NONE', #144, #304, #365, .T. ) ;
#8 = ORIENTED_EDGE ( 'NONE', *, *, #2, .F. ) ;
#9 =( GEOMETRIC_REPRESENTATION_CONTEXT ( 3 ) GLOBAL_UNCERTAINTY_ASSIGNED_CONTEXT ( ( #54 ) ) GLOBAL_UNIT_ASSIGNED_CONTEXT ( ( #142, #205, #248 ) ) REPRESENTATION_CONTEXT ( 'NONE', 'WORKASPACE' ) );
#10 = ORIENTED_EDGE ( 'NONE', *, *, #76, .F. ) ;
#11 = CONICAL_SURFACE ( 'NONE', #42, 2.099999999999996980, 1.029744258676653645 ) ;
#12 = AXIS2_PLACEMENT_3D ( 'NONE', #353, #165, #290 ) ;
#13 = FILL_AREA_STYLE_COLOUR ( '', #322 ) ;
#14 = SURFACE_STYLE_USAGE ( .BOTH. , #361 ) ;
#15 = EDGE_CURVE ( 'NONE', #326, #304, #337, .T. ) ;
#16 = ORIENTED_EDGE ( 'NONE', *, *, #231, .F. ) ;
#17 = CARTESIAN_POINT ( 'NONE',  ( 2.099999999999992983, 0.000000000000000000, 33.34999999999986642 ) ) ;
#18 = DIRECTION ( 'NONE',  ( 0.000000000000000000, 0.000000000000000000, -1.000000000000000000 ) ) ;
#19 = CARTESIAN_POINT ( 'NONE',  ( -3.499999999999999556, 0.000000000000000000, 33.34999999999986642 ) ) ;
#20 = VERTEX_POINT ( 'NONE', #87 ) ;
#21 = UNCERTAINTY_MEASURE_WITH_UNIT (LENGTH_MEASURE( 1.000000000000000082E-05 ), #315, 'distance_accuracy_value', 'NONE');
#22 = DIRECTION ( 'NONE',  ( 1.000000000000000000, 0.000000000000000000, 0.000000000000000000 ) ) ;
#23 = AXIS2_PLACEMENT_3D ( 'NONE', #118, #250, #374 ) ;
#24 = LINE ( 'NONE', #398, #225 ) ;
#25 = DIRECTION ( 'NONE',  ( 0.000000000000000000, 0.000000000000000000, -1.000000000000000000 ) ) ;
#26 = CARTESIAN_POINT ( 'NONE',  ( 0.000000000000000000, 0.000000000000000000, 33.34999999999986642 ) ) ;
#27 = FACE_BOUND ( 'NONE', #207, .T. ) ;
#28 = MECHANICAL_DESIGN_GEOMETRIC_PRESENTATION_REPRESENTATION (  '', ( #199 ), #297 ) ;
#29 =( NAMED_UNIT ( * ) SI_UNIT ( $, .STERADIAN. ) SOLID_ANGLE_UNIT ( ) );
#30 = CARTESIAN_POINT ( 'NONE',  ( -2.099999999999996980, 2.571758278209432096E-16, 18.61180729995781036 ) ) ;
#31 = STYLED_ITEM ( 'NONE', ( #46 ), #184 ) ;
#32 = PRODUCT_CONTEXT ( 'NONE', #43, 'mechanical' ) ;
#33 = DIRECTION ( 'NONE',  ( -1.000000000000000000, 0.000000000000000000, 0.000000000000000000 ) ) ;
#34 = DIRECTION ( 'NONE',  ( 0.000000000000000000, 0.000000000000000000, 1.000000000000000000 ) ) ;
#35 =( GEOMETRIC_REPRESENTATION_CONTEXT ( 3 ) GLOBAL_UNCERTAINTY_ASSIGNED_CONTEXT ( ( #71 ) ) GLOBAL_UNIT_ASSIGNED_CONTEXT ( ( #215, #189, #352 ) ) REPRESENTATION_CONTEXT ( 'NONE', 'WORKASPACE' ) );
#36 = EDGE_CURVE ( 'NONE', #175, #20, #232, .T. ) ;
#37 = ORIENTED_EDGE ( 'NONE', *, *, #270, .F. ) ;
#38 = EDGE_LOOP ( 'NONE', ( #10, #360, #311, #196 ) ) ;
#39 = SURFACE_SIDE_STYLE ('',( #325 ) ) ;
#40 = ORIENTED_EDGE ( 'NONE', *, *, #346, .T. ) ;
#41 = AXIS2_PLACEMENT_3D ( 'NONE', #116, #296, #395 ) ;
#42 = AXIS2_PLACEMENT_3D ( 'NONE', #161, #320, #33 ) ;
#43 = APPLICATION_CONTEXT ( 'automotive_design' ) ;
#44 = ADVANCED_FACE ( 'NONE', ( #299 ), #385, .F. ) ;
#45 = ORIENTED_EDGE ( 'NONE', *, *, #167, .T. ) ;
#46 = PRESENTATION_STYLE_ASSIGNMENT (( #331 ) ) ;
#47 = ADVANCED_FACE ( 'NONE', ( #396 ), #82, .T. ) ;
#48 = VECTOR ( 'NONE', #298, 1000.000000000000114 ) ;
#49 = CARTESIAN_POINT ( 'NONE',  ( 2.099999999999996980, 2.571758278209432096E-16, -18.61180729995781746 ) ) ;
#50 = DIRECTION ( 'NONE',  ( 0.000000000000000000, 0.000000000000000000, -1.000000000000000000 ) ) ;
#51 = ORIENTED_EDGE ( 'NONE', *, *, #115, .T. ) ;
#52 = CARTESIAN_POINT ( 'NONE',  ( 0.000000000000000000, 0.000000000000000000, 33.34999999999986642 ) ) ;
#53 = DIRECTION ( 'NONE',  ( 0.000000000000000000, 0.000000000000000000, -1.000000000000000000 ) ) ;
#54 = UNCERTAINTY_MEASURE_WITH_UNIT (LENGTH_MEASURE( 1.000000000000000082E-05 ), #142, 'distance_accuracy_value', 'NONE');
#55 = CARTESIAN_POINT ( 'NONE',  ( 2.099999999999996980, 0.000000000000000000, 18.61180729995781036 ) ) ;
#56 = AXIS2_PLACEMENT_3D ( 'NONE', #204, #279, #22 ) ;
#57 =( LENGTH_UNIT ( ) NAMED_UNIT ( * ) SI_UNIT ( .MILLI., .METRE. ) );
#58 = DIRECTION ( 'NONE',  ( 1.000000000000000000, 0.000000000000000000, 0.000000000000000000 ) ) ;
#59 = SURFACE_STYLE_FILL_AREA ( #1 ) ;
#60 = FILL_AREA_STYLE_COLOUR ( '', #399 ) ;
#61 = DIRECTION ( 'NONE',  ( 0.000000000000000000, 0.000000000000000000, 1.000000000000000000 ) ) ;
#62 = MECHANICAL_DESIGN_GEOMETRIC_PRESENTATION_REPRESENTATION (  '', ( #111 ), #239 ) ;
#63 = VECTOR ( 'NONE', #302, 1000.000000000000000 ) ;
#64 = CYLINDRICAL_SURFACE ( 'NONE', #392, 2.099999999999992983 ) ;
#65 = PRESENTATION_LAYER_ASSIGNMENT (  '', '', ( #268 ) ) ;
#66 = FILL_AREA_STYLE ('',( #220 ) ) ;
#67 = ORIENTED_EDGE ( 'NONE', *, *, #380, .T. ) ;
#68 = ORIENTED_EDGE ( 'NONE', *, *, #162, .F. ) ;
#69 =( GEOMETRIC_REPRESENTATION_CONTEXT ( 3 ) GLOBAL_UNCERTAINTY_ASSIGNED_CONTEXT ( ( #21 ) ) GLOBAL_UNIT_ASSIGNED_CONTEXT ( ( #315, #114, #247 ) ) REPRESENTATION_CONTEXT ( 'NONE', 'WORKASPACE' ) );
#70 = CARTESIAN_POINT ( 'NONE',  ( 2.099999999999996980, 0.000000000000000000, 18.61180729995781036 ) ) ;
#71 = UNCERTAINTY_MEASURE_WITH_UNIT (LENGTH_MEASURE( 1.000000000000000082E-05 ), #215, 'distance_accuracy_value', 'NONE');
#72 = ORIENTED_EDGE ( 'NONE', *, *, #346, .F. ) ;
#73 = EDGE_LOOP ( 'NONE', ( #83, #324, #45, #72 ) ) ;
#74 = EDGE_CURVE ( 'NONE', #168, #338, #155, .T. ) ;
#75 = ORIENTED_EDGE ( 'NONE', *, *, #7, .F. ) ;
#76 = EDGE_CURVE ( 'NONE', #328, #105, #281, .T. ) ;
#77 =( NAMED_UNIT ( * ) PLANE_ANGLE_UNIT ( ) SI_UNIT ( $, .RADIAN. ) );
#78 = EDGE_LOOP ( 'NONE', ( #88, #402, #149 ) ) ;
#79 = DIRECTION ( 'NONE',  ( -1.000000000000000000, 0.000000000000000000, 0.000000000000000000 ) ) ;
#80 = PRESENTATION_LAYER_ASSIGNMENT (  '', '', ( #136 ) ) ;
#81 = CARTESIAN_POINT ( 'NONE',  ( 2.099999999999996980, 2.571758278209432096E-16, -18.61180729995781746 ) ) ;
#82 = CYLINDRICAL_SURFACE ( 'NONE', #407, 3.499999999999999556 ) ;
#83 = ORIENTED_EDGE ( 'NONE', *, *, #74, .F. ) ;
#84 = DIRECTION ( 'NONE',  ( 0.8571673007021123336, 0.000000000000000000, 0.5150380749100541555 ) ) ;
#85 = FACE_OUTER_BOUND ( 'NONE', #382, .T. ) ;
#86 = CYLINDRICAL_SURFACE ( 'NONE', #390, 2.099999999999992983 ) ;
#87 = CARTESIAN_POINT ( 'NONE',  ( 2.099999999999988987, 2.571758278209425687E-16, -33.34999999999988063 ) ) ;
#88 = ORIENTED_EDGE ( 'NONE', *, *, #372, .F. ) ;
#89 = DIRECTION ( 'NONE',  ( 1.000000000000000000, 0.000000000000000000, 0.000000000000000000 ) ) ;
#90 = CYLINDRICAL_SURFACE ( 'NONE', #23, 3.499999999999999556 ) ;
#91 = VECTOR ( 'NONE', #25, 1000.000000000000000 ) ;
#92 = AXIS2_PLACEMENT_3D ( 'NONE', #254, #34, #214 ) ;
#93 = FACE_BOUND ( 'NONE', #236, .T. ) ;
#94 = APPLICATION_PROTOCOL_DEFINITION ( 'draft international standard', 'automotive_design', 1998, #284 ) ;
#95 = ADVANCED_FACE ( 'NONE', ( #356 ), #86, .F. ) ;
#96 = DIRECTION ( 'NONE',  ( 1.000000000000000000, 0.000000000000000000, 0.000000000000000000 ) ) ;
#97 =( LENGTH_UNIT ( ) NAMED_UNIT ( * ) SI_UNIT ( .MILLI., .METRE. ) );
#98 = AXIS2_PLACEMENT_3D ( 'NONE', #154, #208, #371 ) ;
#99 = CARTESIAN_POINT ( 'NONE',  ( 0.000000000000000000, 0.000000000000000000, -33.34999999999988063 ) ) ;
#100 = SURFACE_STYLE_USAGE ( .BOTH. , #124 ) ;
#101 = ORIENTED_EDGE ( 'NONE', *, *, #330, .T. ) ;
#102 = MECHANICAL_DESIGN_GEOMETRIC_PRESENTATION_REPRESENTATION (  '', ( #136 ), #9 ) ;
#103 = ORIENTED_EDGE ( 'NONE', *, *, #295, .F. ) ;
#104 = DIRECTION ( 'NONE',  ( 0.000000000000000000, 0.000000000000000000, -1.000000000000000000 ) ) ;
#105 = VERTEX_POINT ( 'NONE', #70 ) ;
#106 = CIRCLE ( 'NONE', #389, 3.499999999999999556 ) ;
#107 = VECTOR ( 'NONE', #53, 1000.000000000000000 ) ;
#108 = ADVANCED_FACE ( 'NONE', ( #85 ), #262, .F. ) ;
#109 = PRESENTATION_STYLE_ASSIGNMENT (( #14 ) ) ;
#110 = CARTESIAN_POINT ( 'NONE',  ( -2.099999999999992983, 2.571758278209427659E-16, 33.34999999999986642 ) ) ;
#111 = STYLED_ITEM ( 'NONE', ( #349 ), #135 ) ;
#112 = AXIS2_PLACEMENT_3D ( 'NONE', #198, #18, #404 ) ;
#113 = CARTESIAN_POINT ( 'NONE',  ( 0.000000000000000000, 0.000000000000000000, 33.34999999999986642 ) ) ;
#114 =( NAMED_UNIT ( * ) PLANE_ANGLE_UNIT ( ) SI_UNIT ( $, .RADIAN. ) );
#115 = EDGE_CURVE ( 'NONE', #329, #338, #24, .T. ) ;
#116 = CARTESIAN_POINT ( 'NONE',  ( 0.000000000000000000, 0.000000000000000000, 18.61180729995781036 ) ) ;
#117 = DIRECTION ( 'NONE',  ( 0.000000000000000000, 0.000000000000000000, -1.000000000000000000 ) ) ;
#118 = CARTESIAN_POINT ( 'NONE',  ( 0.000000000000000000, 0.000000000000000000, 33.34999999999986642 ) ) ;
#119 = SURFACE_STYLE_USAGE ( .BOTH. , #158 ) ;
#120 = EDGE_CURVE ( 'NONE', #329, #168, #306, .T. ) ;
#121 = PRESENTATION_LAYER_ASSIGNMENT (  '', '', ( #31 ) ) ;
#122 = PLANE ( 'NONE',  #256 ) ;
#123 =( NAMED_UNIT ( * ) SI_UNIT ( $, .STERADIAN. ) SOLID_ANGLE_UNIT ( ) );
#124 = SURFACE_SIDE_STYLE ('',( #258 ) ) ;
#125 = DIRECTION ( 'NONE',  ( 0.000000000000000000, 0.000000000000000000, 1.000000000000000000 ) ) ;
#126 = SURFACE_STYLE_FILL_AREA ( #66 ) ;
#127 = CIRCLE ( 'NONE', #359, 2.099999999999996980 ) ;
#128 = PRESENTATION_LAYER_ASSIGNMENT (  '', '', ( #111 ) ) ;
#129 = VERTEX_POINT ( 'NONE', #233 ) ;
#130 = DIRECTION ( 'NONE',  ( 1.000000000000000000, 0.000000000000000000, 0.000000000000000000 ) ) ;
#131 = AXIS2_PLACEMENT_3D ( 'NONE', #174, #309, #245 ) ;
#132 = ORIENTED_EDGE ( 'NONE', *, *, #153, .T. ) ;
#133 = UNCERTAINTY_MEASURE_WITH_UNIT (LENGTH_MEASURE( 1.000000000000000082E-05 ), #235, 'distance_accuracy_value', 'NONE');
#134 = ORIENTED_EDGE ( 'NONE', *, *, #15, .T. ) ;
#135 = ADVANCED_BREP_SHAPE_REPRESENTATION ( 'Axe', ( #159, #350 ), #35 ) ;
#136 = STYLED_ITEM ( 'NONE', ( #109 ), #159 ) ;
#137 = LINE ( 'NONE', #201, #63 ) ;
#138 = PRESENTATION_LAYER_ASSIGNMENT (  '', '', ( #368 ) ) ;
#139 = DIRECTION ( 'NONE',  ( 0.000000000000000000, 0.000000000000000000, 1.000000000000000000 ) ) ;
#140 = ORIENTED_EDGE ( 'NONE', *, *, #264, .T. ) ;
#141 = LINE ( 'NONE', #342, #91 ) ;
#142 =( LENGTH_UNIT ( ) NAMED_UNIT ( * ) SI_UNIT ( .MILLI., .METRE. ) );
#143 = CARTESIAN_POINT ( 'NONE',  ( 0.000000000000000000, 0.000000000000000000, 33.34999999999986642 ) ) ;
#144 = VERTEX_POINT ( 'NONE', #364 ) ;
#145 = VECTOR ( 'NONE', #344, 1000.000000000000000 ) ;
#146 = CARTESIAN_POINT ( 'NONE',  ( 0.000000000000000000, 0.000000000000000000, 33.34999999999986642 ) ) ;
#147 = SURFACE_SIDE_STYLE ('',( #126 ) ) ;
#148 = PRODUCT_RELATED_PRODUCT_CATEGORY ( 'part', '', ( #209 ) ) ;
#149 = ORIENTED_EDGE ( 'NONE', *, *, #76, .T. ) ;
#150 = CARTESIAN_POINT ( 'NONE',  ( 0.000000000000000000, 0.000000000000000000, -18.61180729995781746 ) ) ;
#151 = PRODUCT_DEFINITION_SHAPE ( 'NONE', 'NONE',  #176 ) ;
#152 = SURFACE_STYLE_USAGE ( .BOTH. , #39 ) ;
#153 = EDGE_CURVE ( 'NONE', #105, #328, #169, .T. ) ;
#154 = CARTESIAN_POINT ( 'NONE',  ( 0.000000000000000000, 0.000000000000000000, -33.34999999999988063 ) ) ;
#155 = CIRCLE ( 'NONE', #12, 2.099999999999996980 ) ;
#156 = VECTOR ( 'NONE', #351, 1000.000000000000114 ) ;
#157 = DIRECTION ( 'NONE',  ( 1.000000000000000000, 0.000000000000000000, 0.000000000000000000 ) ) ;
#158 = SURFACE_SIDE_STYLE ('',( #59 ) ) ;
#159 = MANIFOLD_SOLID_BREP ( 'Trou taraudé M51', #354 ) ;
#160 = FILL_AREA_STYLE ('',( #60 ) ) ;
#161 = CARTESIAN_POINT ( 'NONE',  ( 0.000000000000000000, 0.000000000000000000, -18.61180729995781746 ) ) ;
#162 = EDGE_CURVE ( 'NONE', #168, #20, #137, .T. ) ;
#163 = CARTESIAN_POINT ( 'NONE',  ( 0.000000000000000000, 0.000000000000000000, 33.34999999999986642 ) ) ;
#164 = EDGE_LOOP ( 'NONE', ( #303, #140 ) ) ;
#165 = DIRECTION ( 'NONE',  ( 0.000000000000000000, 0.000000000000000000, -1.000000000000000000 ) ) ;
#166 = ORIENTED_EDGE ( 'NONE', *, *, #341, .T. ) ;
#167 = EDGE_CURVE ( 'NONE', #20, #175, #293, .T. ) ;
#168 = VERTEX_POINT ( 'NONE', #81 ) ;
#169 = CIRCLE ( 'NONE', #41, 2.099999999999996980 ) ;
#170 = CIRCLE ( 'NONE', #218, 3.499999999999999556 ) ;
#171 = FILL_AREA_STYLE_COLOUR ( '', #376 ) ;
#172 = CARTESIAN_POINT ( 'NONE',  ( -3.499999999999999556, 0.000000000000000000, 33.34999999999986642 ) ) ;
#173 = DIRECTION ( 'NONE',  ( -0.8571673007021123336, 0.000000000000000000, -0.5150380749100541555 ) ) ;
#174 = CARTESIAN_POINT ( 'NONE',  ( 0.000000000000000000, 0.000000000000000000, -33.34999999999988063 ) ) ;
#175 = VERTEX_POINT ( 'NONE', #269 ) ;
#176 = PRODUCT_DEFINITION ( 'UNKNOWN', '', #276, #388 ) ;
#177 = LINE ( 'NONE', #213, #327 ) ;
#178 = FACE_OUTER_BOUND ( 'NONE', #227, .T. ) ;
#179 = DIRECTION ( 'NONE',  ( 0.000000000000000000, 0.000000000000000000, 1.000000000000000000 ) ) ;
#180 = DIRECTION ( 'NONE',  ( -1.000000000000000000, 0.000000000000000000, 0.000000000000000000 ) ) ;
#181 = VECTOR ( 'NONE', #314, 1000.000000000000000 ) ;
#182 = CARTESIAN_POINT ( 'NONE',  ( 0.000000000000000000, 0.000000000000000000, 33.34999999999986642 ) ) ;
#183 = DIRECTION ( 'NONE',  ( 1.000000000000000000, 0.000000000000000000, 0.000000000000000000 ) ) ;
#184 = ADVANCED_FACE ( 'NONE', ( #178 ), #64, .F. ) ;
#185 = PRESENTATION_STYLE_ASSIGNMENT (( #119 ) ) ;
#186 =( LENGTH_UNIT ( ) NAMED_UNIT ( * ) SI_UNIT ( .MILLI., .METRE. ) );
#187 = FACE_OUTER_BOUND ( 'NONE', #394, .T. ) ;
#188 = ADVANCED_FACE ( 'NONE', ( #27, #190 ), #287, .F. ) ;
#189 =( NAMED_UNIT ( * ) PLANE_ANGLE_UNIT ( ) SI_UNIT ( $, .RADIAN. ) );
#190 = FACE_OUTER_BOUND ( 'NONE', #271, .T. ) ;
#191 = PRESENTATION_LAYER_ASSIGNMENT (  '', '', ( #199 ) ) ;
#192 = MECHANICAL_DESIGN_GEOMETRIC_PRESENTATION_REPRESENTATION (  '', ( #268 ), #69 ) ;
#193 = ADVANCED_FACE ( 'NONE', ( #4 ), #348, .F. ) ;
#194 = VERTEX_POINT ( 'NONE', #252 ) ;
#195 = ORIENTED_EDGE ( 'NONE', *, *, #384, .F. ) ;
#196 = ORIENTED_EDGE ( 'NONE', *, *, #341, .F. ) ;
#197 = UNCERTAINTY_MEASURE_WITH_UNIT (LENGTH_MEASURE( 1.000000000000000082E-05 ), #97, 'distance_accuracy_value', 'NONE');
#198 = CARTESIAN_POINT ( 'NONE',  ( 0.000000000000000000, 0.000000000000000000, -33.34999999999988063 ) ) ;
#199 = STYLED_ITEM ( 'NONE', ( #249 ), #95 ) ;
#200 = DIRECTION ( 'NONE',  ( 0.000000000000000000, 0.000000000000000000, 1.000000000000000000 ) ) ;
#201 = CARTESIAN_POINT ( 'NONE',  ( 2.099999999999992983, 2.571758278209427659E-16, -33.34999999999988063 ) ) ;
#202 = CARTESIAN_POINT ( 'NONE',  ( 0.000000000000000000, 0.000000000000000000, -33.34999999999988063 ) ) ;
#203 = EDGE_LOOP ( 'NONE', ( #103, #8, #134, #67 ) ) ;
#204 = CARTESIAN_POINT ( 'NONE',  ( 0.000000000000000000, 0.000000000000000000, -33.34999999999988063 ) ) ;
#205 =( NAMED_UNIT ( * ) PLANE_ANGLE_UNIT ( ) SI_UNIT ( $, .RADIAN. ) );
#206 = CARTESIAN_POINT ( 'NONE',  ( 0.000000000000000000, 0.000000000000000000, 33.34999999999986642 ) ) ;
#207 = EDGE_LOOP ( 'NONE', ( #362, #355 ) ) ;
#208 = DIRECTION ( 'NONE',  ( 0.000000000000000000, 0.000000000000000000, -1.000000000000000000 ) ) ;
#209 = PRODUCT ( 'Axe', 'Axe', '', ( #32 ) ) ;
#210 =( NAMED_UNIT ( * ) SI_UNIT ( $, .STERADIAN. ) SOLID_ANGLE_UNIT ( ) );
#211 = DIRECTION ( 'NONE',  ( 0.000000000000000000, 0.000000000000000000, 1.000000000000000000 ) ) ;
#212 = AXIS2_PLACEMENT_3D ( 'NONE', #99, #251, #282 ) ;
#213 = CARTESIAN_POINT ( 'NONE',  ( 3.499999999999999556, 4.286263797015726241E-16, 33.34999999999986642 ) ) ;
#214 = DIRECTION ( 'NONE',  ( 1.000000000000000000, 0.000000000000000000, 0.000000000000000000 ) ) ;
#215 =( LENGTH_UNIT ( ) NAMED_UNIT ( * ) SI_UNIT ( .MILLI., .METRE. ) );
#216 = CARTESIAN_POINT ( 'NONE',  ( -3.903127820947815962E-15, -9.629649721936179265E-32, 17.34999999999992681 ) ) ;
#217 = CARTESIAN_POINT ( 'NONE',  ( 0.000000000000000000, 0.000000000000000000, 18.61180729995781036 ) ) ;
#218 = AXIS2_PLACEMENT_3D ( 'NONE', #113, #366, #369 ) ;
#219 = DIRECTION ( 'NONE',  ( 1.000000000000000000, 0.000000000000000000, 0.000000000000000000 ) ) ;
#220 = FILL_AREA_STYLE_COLOUR ( '', #244 ) ;
#221 =( NAMED_UNIT ( * ) PLANE_ANGLE_UNIT ( ) SI_UNIT ( $, .RADIAN. ) );
#222 = ADVANCED_FACE ( 'NONE', ( #377 ), #318, .F. ) ;
#223 = VERTEX_POINT ( 'NONE', #216 ) ;
#224 = FILL_AREA_STYLE ('',( #383 ) ) ;
#225 = VECTOR ( 'NONE', #173, 1000.000000000000114 ) ;
#226 =( GEOMETRIC_REPRESENTATION_CONTEXT ( 3 ) GLOBAL_UNCERTAINTY_ASSIGNED_CONTEXT ( ( #133 ) ) GLOBAL_UNIT_ASSIGNED_CONTEXT ( ( #235, #77, #123 ) ) REPRESENTATION_CONTEXT ( 'NONE', 'WORKASPACE' ) );
#227 = EDGE_LOOP ( 'NONE', ( #228, #273, #166, #289 ) ) ;
#228 = ORIENTED_EDGE ( 'NONE', *, *, #259, .F. ) ;
#229 = ORIENTED_EDGE ( 'NONE', *, *, #372, .T. ) ;
#230 = CIRCLE ( 'NONE', #56, 3.499999999999999556 ) ;
#231 = EDGE_CURVE ( 'NONE', #223, #328, #317, .T. ) ;
#232 = CIRCLE ( 'NONE', #333, 2.099999999999988987 ) ;
#233 = CARTESIAN_POINT ( 'NONE',  ( -2.099999999999988987, 2.571758278209425687E-16, 33.34999999999986642 ) ) ;
#234 = EDGE_LOOP ( 'NONE', ( #16, #229, #132 ) ) ;
#235 =( LENGTH_UNIT ( ) NAMED_UNIT ( * ) SI_UNIT ( .MILLI., .METRE. ) );
#236 = EDGE_LOOP ( 'NONE', ( #37, #195 ) ) ;
#237 = ADVANCED_FACE ( 'NONE', ( #187 ), #11, .F. ) ;
#238 = FILL_AREA_STYLE ('',( #13 ) ) ;
#239 =( GEOMETRIC_REPRESENTATION_CONTEXT ( 3 ) GLOBAL_UNCERTAINTY_ASSIGNED_CONTEXT ( ( #357 ) ) GLOBAL_UNIT_ASSIGNED_CONTEXT ( ( #186, #221, #29 ) ) REPRESENTATION_CONTEXT ( 'NONE', 'WORKASPACE' ) );
#240 = CARTESIAN_POINT ( 'NONE',  ( 0.000000000000000000, 0.000000000000000000, 18.61180729995781036 ) ) ;
#241 = ORIENTED_EDGE ( 'NONE', *, *, #295, .T. ) ;
#242 = DIRECTION ( 'NONE',  ( 0.000000000000000000, 0.000000000000000000, -1.000000000000000000 ) ) ;
#243 = CARTESIAN_POINT ( 'NONE',  ( 0.000000000000000000, 0.000000000000000000, -18.61180729995781746 ) ) ;
#244 = COLOUR_RGB ( '',0.7921568627450980005, 0.8196078431372548767, 0.9333333333333333481 ) ;
#245 = DIRECTION ( 'NONE',  ( 1.000000000000000000, 0.000000000000000000, 0.000000000000000000 ) ) ;
#246 = ORIENTED_EDGE ( 'NONE', *, *, #36, .T. ) ;
#247 =( NAMED_UNIT ( * ) SI_UNIT ( $, .STERADIAN. ) SOLID_ANGLE_UNIT ( ) );
#248 =( NAMED_UNIT ( * ) SI_UNIT ( $, .STERADIAN. ) SOLID_ANGLE_UNIT ( ) );
#249 = PRESENTATION_STYLE_ASSIGNMENT (( #152 ) ) ;
#250 = DIRECTION ( 'NONE',  ( 0.000000000000000000, 0.000000000000000000, -1.000000000000000000 ) ) ;
#251 = DIRECTION ( 'NONE',  ( 0.000000000000000000, 0.000000000000000000, -1.000000000000000000 ) ) ;
#252 = CARTESIAN_POINT ( 'NONE',  ( 2.099999999999988987, 0.000000000000000000, 33.34999999999986642 ) ) ;
#253 = APPLICATION_PROTOCOL_DEFINITION ( 'draft international standard', 'automotive_design', 1998, #43 ) ;
#254 = CARTESIAN_POINT ( 'NONE',  ( 0.000000000000000000, 0.000000000000000000, -33.34999999999988063 ) ) ;
#255 = ADVANCED_FACE ( 'NONE', ( #285 ), #397, .F. ) ;
#256 = AXIS2_PLACEMENT_3D ( 'NONE', #52, #211, #58 ) ;
#257 = DIRECTION ( 'NONE',  ( 1.000000000000000000, 0.000000000000000000, 0.000000000000000000 ) ) ;
#258 = SURFACE_STYLE_FILL_AREA ( #160 ) ;
#259 = EDGE_CURVE ( 'NONE', #328, #129, #370, .T. ) ;
#260 = ORIENTED_EDGE ( 'NONE', *, *, #120, .T. ) ;
#261 = DIRECTION ( 'NONE',  ( -1.000000000000000000, 0.000000000000000000, 0.000000000000000000 ) ) ;
#262 = CONICAL_SURFACE ( 'NONE', #267, 2.099999999999996980, 1.029744258676653645 ) ;
#263 = MECHANICAL_DESIGN_GEOMETRIC_PRESENTATION_REPRESENTATION (  '', ( #31 ), #226 ) ;
#264 = EDGE_CURVE ( 'NONE', #274, #326, #106, .T. ) ;
#265 = DIRECTION ( 'NONE',  ( -1.000000000000000000, 0.000000000000000000, 0.000000000000000000 ) ) ;
#266 = CIRCLE ( 'NONE', #286, 2.099999999999988987 ) ;
#267 = AXIS2_PLACEMENT_3D ( 'NONE', #243, #336, #265 ) ;
#268 = STYLED_ITEM ( 'NONE', ( #405 ), #255 ) ;
#269 = CARTESIAN_POINT ( 'NONE',  ( -2.099999999999988987, 0.000000000000000000, -33.34999999999988063 ) ) ;
#270 = EDGE_CURVE ( 'NONE', #194, #129, #308, .T. ) ;
#271 = EDGE_LOOP ( 'NONE', ( #401, #75 ) ) ;
#272 = DIRECTION ( 'NONE',  ( 1.000000000000000000, 0.000000000000000000, 0.000000000000000000 ) ) ;
#273 = ORIENTED_EDGE ( 'NONE', *, *, #153, .F. ) ;
#274 = VERTEX_POINT ( 'NONE', #280 ) ;
#275 = ORIENTED_EDGE ( 'NONE', *, *, #264, .F. ) ;
#276 = PRODUCT_DEFINITION_FORMATION_WITH_SPECIFIED_SOURCE ( 'ANY', '', #209, .NOT_KNOWN. ) ;
#277 = DIRECTION ( 'NONE',  ( 0.000000000000000000, 0.000000000000000000, 1.000000000000000000 ) ) ;
#278 = SURFACE_STYLE_FILL_AREA ( #391 ) ;
#279 = DIRECTION ( 'NONE',  ( 0.000000000000000000, 0.000000000000000000, 1.000000000000000000 ) ) ;
#280 = CARTESIAN_POINT ( 'NONE',  ( 3.499999999999999556, 4.286263797015726241E-16, 33.34999999999986642 ) ) ;
#281 = CIRCLE ( 'NONE', #288, 2.099999999999996980 ) ;
#282 = DIRECTION ( 'NONE',  ( -1.000000000000000000, 0.000000000000000000, 0.000000000000000000 ) ) ;
#283 = MECHANICAL_DESIGN_GEOMETRIC_PRESENTATION_REPRESENTATION (  '', ( #368 ), #335 ) ;
#284 = APPLICATION_CONTEXT ( 'automotive_design' ) ;
#285 = FACE_OUTER_BOUND ( 'NONE', #73, .T. ) ;
#286 = AXIS2_PLACEMENT_3D ( 'NONE', #146, #277, #157 ) ;
#287 = PLANE ( 'NONE',  #92 ) ;
#288 = AXIS2_PLACEMENT_3D ( 'NONE', #6, #387, #130 ) ;
#289 = ORIENTED_EDGE ( 'NONE', *, *, #270, .T. ) ;
#290 = DIRECTION ( 'NONE',  ( -1.000000000000000000, 0.000000000000000000, 0.000000000000000000 ) ) ;
#291 = ORIENTED_EDGE ( 'NONE', *, *, #115, .F. ) ;
#292 = ORIENTED_EDGE ( 'NONE', *, *, #330, .F. ) ;
#293 = CIRCLE ( 'NONE', #112, 2.099999999999988987 ) ;
#294 = ORIENTED_EDGE ( 'NONE', *, *, #15, .F. ) ;
#295 = EDGE_CURVE ( 'NONE', #274, #144, #177, .T. ) ;
#296 = DIRECTION ( 'NONE',  ( 0.000000000000000000, 0.000000000000000000, 1.000000000000000000 ) ) ;
#297 =( GEOMETRIC_REPRESENTATION_CONTEXT ( 3 ) GLOBAL_UNCERTAINTY_ASSIGNED_CONTEXT ( ( #373 ) ) GLOBAL_UNIT_ASSIGNED_CONTEXT ( ( #57, #310, #210 ) ) REPRESENTATION_CONTEXT ( 'NONE', 'WORKASPACE' ) );
#298 = DIRECTION ( 'NONE',  ( 0.8571673007021123336, 1.049727191138616477E-16, -0.5150380749100541555 ) ) ;
#299 = FACE_OUTER_BOUND ( 'NONE', #234, .T. ) ;
#300 = ORIENTED_EDGE ( 'NONE', *, *, #74, .T. ) ;
#301 = CARTESIAN_POINT ( 'NONE',  ( -3.499999999999999556, 0.000000000000000000, -33.34999999999988063 ) ) ;
#302 = DIRECTION ( 'NONE',  ( 0.000000000000000000, 0.000000000000000000, -1.000000000000000000 ) ) ;
#303 = ORIENTED_EDGE ( 'NONE', *, *, #2, .T. ) ;
#304 = VERTEX_POINT ( 'NONE', #301 ) ;
#305 = CARTESIAN_POINT ( 'NONE',  ( -2.099999999999996980, 2.571758278209432096E-16, 18.61180729995781036 ) ) ;
#306 = LINE ( 'NONE', #49, #48 ) ;
#307 = DIRECTION ( 'NONE',  ( 1.000000000000000000, 0.000000000000000000, 0.000000000000000000 ) ) ;
#308 = CIRCLE ( 'NONE', #378, 2.099999999999988987 ) ;
#309 = DIRECTION ( 'NONE',  ( 0.000000000000000000, 0.000000000000000000, 1.000000000000000000 ) ) ;
#310 =( NAMED_UNIT ( * ) PLANE_ANGLE_UNIT ( ) SI_UNIT ( $, .RADIAN. ) );
#311 = ORIENTED_EDGE ( 'NONE', *, *, #384, .T. ) ;
#312 = ADVANCED_FACE ( 'NONE', ( #406 ), #90, .T. ) ;
#313 = FACE_OUTER_BOUND ( 'NONE', #164, .T. ) ;
#314 = DIRECTION ( 'NONE',  ( 0.000000000000000000, 0.000000000000000000, 1.000000000000000000 ) ) ;
#315 =( LENGTH_UNIT ( ) NAMED_UNIT ( * ) SI_UNIT ( .MILLI., .METRE. ) );
#316 = ADVANCED_FACE ( 'NONE', ( #93, #313 ), #122, .T. ) ;
#317 = LINE ( 'NONE', #30, #156 ) ;
#318 = CONICAL_SURFACE ( 'NONE', #403, 2.099999999999996980, 1.029744258676653645 ) ;
#319 = CARTESIAN_POINT ( 'NONE',  ( 0.000000000000000000, 0.000000000000000000, 0.000000000000000000 ) ) ;
#320 = DIRECTION ( 'NONE',  ( 0.000000000000000000, 0.000000000000000000, -1.000000000000000000 ) ) ;
#321 = FILL_AREA_STYLE_COLOUR ( '', #323 ) ;
#322 = COLOUR_RGB ( '',0.7764705882352941346, 0.7568627450980391913, 0.7372549019607843590 ) ;
#323 = COLOUR_RGB ( '',0.7921568627450980005, 0.8196078431372548767, 0.9333333333333333481 ) ;
#324 = ORIENTED_EDGE ( 'NONE', *, *, #162, .T. ) ;
#325 = SURFACE_STYLE_FILL_AREA ( #224 ) ;
#326 = VERTEX_POINT ( 'NONE', #172 ) ;
#327 = VECTOR ( 'NONE', #117, 1000.000000000000000 ) ;
#328 = VERTEX_POINT ( 'NONE', #305 ) ;
#329 = VERTEX_POINT ( 'NONE', #363 ) ;
#330 = EDGE_CURVE ( 'NONE', #338, #168, #127, .T. ) ;
#331 = SURFACE_STYLE_USAGE ( .BOTH. , #393 ) ;
#332 = EDGE_LOOP ( 'NONE', ( #68, #292, #40, #246 ) ) ;
#333 = AXIS2_PLACEMENT_3D ( 'NONE', #202, #50, #180 ) ;
#334 = CARTESIAN_POINT ( 'NONE',  ( -2.099999999999996980, 0.000000000000000000, -18.61180729995781746 ) ) ;
#335 =( GEOMETRIC_REPRESENTATION_CONTEXT ( 3 ) GLOBAL_UNCERTAINTY_ASSIGNED_CONTEXT ( ( #197 ) ) GLOBAL_UNIT_ASSIGNED_CONTEXT ( ( #97, #379, #375 ) ) REPRESENTATION_CONTEXT ( 'NONE', 'WORKASPACE' ) );
#336 = DIRECTION ( 'NONE',  ( 0.000000000000000000, 0.000000000000000000, -1.000000000000000000 ) ) ;
#337 = LINE ( 'NONE', #19, #107 ) ;
#338 = VERTEX_POINT ( 'NONE', #334 ) ;
#339 = LINE ( 'NONE', #55, #3 ) ;
#340 = SURFACE_STYLE_FILL_AREA ( #238 ) ;
#341 = EDGE_CURVE ( 'NONE', #105, #194, #367, .T. ) ;
#342 = CARTESIAN_POINT ( 'NONE',  ( -2.099999999999992983, 0.000000000000000000, -33.34999999999988063 ) ) ;
#343 = COLOUR_RGB ( '',0.7921568627450980005, 0.8196078431372548767, 0.9333333333333333481 ) ;
#344 = DIRECTION ( 'NONE',  ( 0.000000000000000000, 0.000000000000000000, 1.000000000000000000 ) ) ;
#345 = SURFACE_STYLE_USAGE ( .BOTH. , #147 ) ;
#346 = EDGE_CURVE ( 'NONE', #338, #175, #141, .T. ) ;
#347 = SHAPE_DEFINITION_REPRESENTATION ( #151, #135 ) ;
#348 = CYLINDRICAL_SURFACE ( 'NONE', #212, 2.099999999999992983 ) ;
#349 = PRESENTATION_STYLE_ASSIGNMENT (( #100 ) ) ;
#350 = AXIS2_PLACEMENT_3D ( 'NONE', #319, #381, #219 ) ;
#351 = DIRECTION ( 'NONE',  ( -0.8571673007021123336, 1.049727191138616477E-16, 0.5150380749100541555 ) ) ;
#352 =( NAMED_UNIT ( * ) SI_UNIT ( $, .STERADIAN. ) SOLID_ANGLE_UNIT ( ) );
#353 = CARTESIAN_POINT ( 'NONE',  ( 0.000000000000000000, 0.000000000000000000, -18.61180729995781746 ) ) ;
#354 = CLOSED_SHELL ( 'NONE', ( #95, #222, #255, #237, #47, #312, #316, #188, #108, #193, #44, #184 ) ) ;
#355 = ORIENTED_EDGE ( 'NONE', *, *, #167, .F. ) ;
#356 = FACE_OUTER_BOUND ( 'NONE', #38, .T. ) ;
#357 = UNCERTAINTY_MEASURE_WITH_UNIT (LENGTH_MEASURE( 1.000000000000000082E-05 ), #186, 'distance_accuracy_value', 'NONE');
#358 = ORIENTED_EDGE ( 'NONE', *, *, #120, .F. ) ;
#359 = AXIS2_PLACEMENT_3D ( 'NONE', #150, #242, #79 ) ;
#360 = ORIENTED_EDGE ( 'NONE', *, *, #259, .T. ) ;
#361 = SURFACE_SIDE_STYLE ('',( #340 ) ) ;
#362 = ORIENTED_EDGE ( 'NONE', *, *, #36, .F. ) ;
#363 = CARTESIAN_POINT ( 'NONE',  ( -3.903127820947815962E-15, -9.629649721936179265E-32, -17.34999999999993392 ) ) ;
#364 = CARTESIAN_POINT ( 'NONE',  ( 3.499999999999999556, 4.286263797015726241E-16, -33.34999999999988063 ) ) ;
#365 = CIRCLE ( 'NONE', #131, 3.499999999999999556 ) ;
#366 = DIRECTION ( 'NONE',  ( 0.000000000000000000, 0.000000000000000000, 1.000000000000000000 ) ) ;
#367 = LINE ( 'NONE', #17, #181 ) ;
#368 = STYLED_ITEM ( 'NONE', ( #185 ), #193 ) ;
#369 = DIRECTION ( 'NONE',  ( 1.000000000000000000, 0.000000000000000000, 0.000000000000000000 ) ) ;
#370 = LINE ( 'NONE', #110, #145 ) ;
#371 = DIRECTION ( 'NONE',  ( -1.000000000000000000, 0.000000000000000000, 0.000000000000000000 ) ) ;
#372 = EDGE_CURVE ( 'NONE', #223, #105, #339, .T. ) ;
#373 = UNCERTAINTY_MEASURE_WITH_UNIT (LENGTH_MEASURE( 1.000000000000000082E-05 ), #57, 'distance_accuracy_value', 'NONE');
#374 = DIRECTION ( 'NONE',  ( -1.000000000000000000, 0.000000000000000000, 0.000000000000000000 ) ) ;
#375 =( NAMED_UNIT ( * ) SI_UNIT ( $, .STERADIAN. ) SOLID_ANGLE_UNIT ( ) );
#376 = COLOUR_RGB ( '',0.7921568627450980005, 0.8196078431372548767, 0.9333333333333333481 ) ;
#377 = FACE_OUTER_BOUND ( 'NONE', #78, .T. ) ;
#378 = AXIS2_PLACEMENT_3D ( 'NONE', #26, #408, #183 ) ;
#379 =( NAMED_UNIT ( * ) PLANE_ANGLE_UNIT ( ) SI_UNIT ( $, .RADIAN. ) );
#380 = EDGE_CURVE ( 'NONE', #304, #144, #230, .T. ) ;
#381 = DIRECTION ( 'NONE',  ( 0.000000000000000000, 0.000000000000000000, 1.000000000000000000 ) ) ;
#382 = EDGE_LOOP ( 'NONE', ( #358, #51, #101 ) ) ;
#383 = FILL_AREA_STYLE_COLOUR ( '', #343 ) ;
#384 = EDGE_CURVE ( 'NONE', #129, #194, #266, .T. ) ;
#385 = CONICAL_SURFACE ( 'NONE', #400, 2.099999999999996980, 1.029744258676653645 ) ;
#386 = EDGE_LOOP ( 'NONE', ( #275, #241, #5, #294 ) ) ;
#387 = DIRECTION ( 'NONE',  ( 0.000000000000000000, 0.000000000000000000, 1.000000000000000000 ) ) ;
#388 = PRODUCT_DEFINITION_CONTEXT ( 'detailed design', #284, 'design' ) ;
#389 = AXIS2_PLACEMENT_3D ( 'NONE', #182, #200, #89 ) ;
#390 = AXIS2_PLACEMENT_3D ( 'NONE', #206, #179, #307 ) ;
#391 = FILL_AREA_STYLE ('',( #171 ) ) ;
#392 = AXIS2_PLACEMENT_3D ( 'NONE', #163, #61, #257 ) ;
#393 = SURFACE_SIDE_STYLE ('',( #278 ) ) ;
#394 = EDGE_LOOP ( 'NONE', ( #291, #260, #300 ) ) ;
#395 = DIRECTION ( 'NONE',  ( 1.000000000000000000, 0.000000000000000000, 0.000000000000000000 ) ) ;
#396 = FACE_OUTER_BOUND ( 'NONE', #386, .T. ) ;
#397 = CYLINDRICAL_SURFACE ( 'NONE', #98, 2.099999999999992983 ) ;
#398 = CARTESIAN_POINT ( 'NONE',  ( -2.099999999999996980, 0.000000000000000000, -18.61180729995781746 ) ) ;
#399 = COLOUR_RGB ( '',0.7764705882352941346, 0.7568627450980391913, 0.7372549019607843590 ) ;
#400 = AXIS2_PLACEMENT_3D ( 'NONE', #240, #139, #272 ) ;
#401 = ORIENTED_EDGE ( 'NONE', *, *, #380, .F. ) ;
#402 = ORIENTED_EDGE ( 'NONE', *, *, #231, .T. ) ;
#403 = AXIS2_PLACEMENT_3D ( 'NONE', #217, #125, #96 ) ;
#404 = DIRECTION ( 'NONE',  ( -1.000000000000000000, 0.000000000000000000, 0.000000000000000000 ) ) ;
#405 = PRESENTATION_STYLE_ASSIGNMENT (( #345 ) ) ;
#406 = FACE_OUTER_BOUND ( 'NONE', #203, .T. ) ;
#407 = AXIS2_PLACEMENT_3D ( 'NONE', #143, #104, #261 ) ;
#408 = DIRECTION ( 'NONE',  ( 0.000000000000000000, 0.000000000000000000, 1.000000000000000000 ) ) ;
ENDSEC;
END-ISO-10303-21;
