ISO-10303-21;
HEADER;
/* Generated by software containing ST-Developer
 * from STEP Tools, Inc. (www.steptools.com) 
 */

FILE_DESCRIPTION(
/* description */ ('PIECE-HABILL-AIGUILLE'),
/* implementation_level */ '2;1');

FILE_NAME(
/* name */ 'C:/Users/guill/Desktop/HAB.0012 BOUCHON CENTRE v31.step',
/* time_stamp */ '2022-08-17T08:07:34+02:00',
/* author */ (''),
/* organization */ (''),
/* preprocessor_version */ 'ST-DEVELOPER v19',
/* originating_system */ 'Autodesk Translation Framework v11.7.0.108',
/* authorisation */ '');

FILE_SCHEMA (('AUTOMOTIVE_DESIGN { 1 0 10303 214 3 1 1 }'));
ENDSEC;

DATA;
#10=MECHANICAL_DESIGN_GEOMETRIC_PRESENTATION_REPRESENTATION('',(#13),#241);
#11=SHAPE_REPRESENTATION_RELATIONSHIP('SRR','None',#248,#12);
#12=ADVANCED_BREP_SHAPE_REPRESENTATION('',(#14),#240);
#13=STYLED_ITEM('',(#258),#14);
#14=MANIFOLD_SOLID_BREP('Corps1',#127);
#15=CONICAL_SURFACE('',#155,0.124999999999781,0.785398163396866);
#16=FACE_BOUND('',#47,.T.);
#17=FACE_BOUND('',#50,.T.);
#18=FACE_BOUND('',#53,.T.);
#19=PLANE('',#148);
#20=PLANE('',#149);
#21=PLANE('',#154);
#22=PLANE('',#157);
#23=LINE('',#215,#27);
#24=LINE('',#226,#28);
#25=LINE('',#231,#29);
#26=LINE('',#237,#30);
#27=VECTOR('',#174,7.35);
#28=VECTOR('',#189,3.20000000000006);
#29=VECTOR('',#194,0.124999999999781);
#30=VECTOR('',#203,4.);
#31=CYLINDRICAL_SURFACE('',#146,7.35);
#32=CYLINDRICAL_SURFACE('',#152,3.20000000000006);
#33=CYLINDRICAL_SURFACE('',#159,3.933);
#34=FACE_OUTER_BOUND('',#43,.T.);
#35=FACE_OUTER_BOUND('',#44,.T.);
#36=FACE_OUTER_BOUND('',#45,.T.);
#37=FACE_OUTER_BOUND('',#46,.T.);
#38=FACE_OUTER_BOUND('',#48,.T.);
#39=FACE_OUTER_BOUND('',#49,.T.);
#40=FACE_OUTER_BOUND('',#51,.T.);
#41=FACE_OUTER_BOUND('',#52,.T.);
#42=FACE_OUTER_BOUND('',#54,.T.);
#43=EDGE_LOOP('',(#89,#90,#91,#92,#93));
#44=EDGE_LOOP('',(#94,#95,#96,#97,#98));
#45=EDGE_LOOP('',(#99));
#46=EDGE_LOOP('',(#100));
#47=EDGE_LOOP('',(#101));
#48=EDGE_LOOP('',(#102,#103,#104,#105));
#49=EDGE_LOOP('',(#106));
#50=EDGE_LOOP('',(#107));
#51=EDGE_LOOP('',(#108,#109,#110));
#52=EDGE_LOOP('',(#111));
#53=EDGE_LOOP('',(#112));
#54=EDGE_LOOP('',(#113,#114,#115,#116));
#55=CIRCLE('',#142,5.85);
#56=CIRCLE('',#143,1.5);
#57=CIRCLE('',#144,7.35);
#58=CIRCLE('',#145,7.35);
#59=CIRCLE('',#147,7.35);
#60=CIRCLE('',#150,3.933);
#61=CIRCLE('',#151,3.20000000000047);
#62=CIRCLE('',#153,3.19999999999965);
#63=CIRCLE('',#156,0.249999999999562);
#64=CIRCLE('',#158,3.933);
#65=VERTEX_POINT('',#206);
#66=VERTEX_POINT('',#208);
#67=VERTEX_POINT('',#210);
#68=VERTEX_POINT('',#214);
#69=VERTEX_POINT('',#219);
#70=VERTEX_POINT('',#221);
#71=VERTEX_POINT('',#224);
#72=VERTEX_POINT('',#229);
#73=VERTEX_POINT('',#230);
#74=VERTEX_POINT('',#234);
#75=EDGE_CURVE('',#65,#65,#55,.T.);
#76=EDGE_CURVE('',#65,#66,#56,.T.);
#77=EDGE_CURVE('',#66,#67,#57,.T.);
#78=EDGE_CURVE('',#67,#66,#58,.T.);
#79=EDGE_CURVE('',#67,#68,#23,.T.);
#80=EDGE_CURVE('',#68,#68,#59,.T.);
#81=EDGE_CURVE('',#69,#69,#60,.F.);
#82=EDGE_CURVE('',#70,#70,#61,.T.);
#83=EDGE_CURVE('',#71,#71,#62,.T.);
#84=EDGE_CURVE('',#71,#70,#24,.T.);
#85=EDGE_CURVE('',#72,#73,#25,.T.);
#86=EDGE_CURVE('',#73,#73,#63,.T.);
#87=EDGE_CURVE('',#74,#74,#64,.T.);
#88=EDGE_CURVE('',#69,#74,#26,.T.);
#89=ORIENTED_EDGE('',*,*,#75,.T.);
#90=ORIENTED_EDGE('',*,*,#76,.T.);
#91=ORIENTED_EDGE('',*,*,#77,.T.);
#92=ORIENTED_EDGE('',*,*,#78,.T.);
#93=ORIENTED_EDGE('',*,*,#76,.F.);
#94=ORIENTED_EDGE('',*,*,#78,.F.);
#95=ORIENTED_EDGE('',*,*,#79,.T.);
#96=ORIENTED_EDGE('',*,*,#80,.T.);
#97=ORIENTED_EDGE('',*,*,#79,.F.);
#98=ORIENTED_EDGE('',*,*,#77,.F.);
#99=ORIENTED_EDGE('',*,*,#75,.F.);
#100=ORIENTED_EDGE('',*,*,#81,.T.);
#101=ORIENTED_EDGE('',*,*,#82,.F.);
#102=ORIENTED_EDGE('',*,*,#83,.F.);
#103=ORIENTED_EDGE('',*,*,#84,.T.);
#104=ORIENTED_EDGE('',*,*,#82,.T.);
#105=ORIENTED_EDGE('',*,*,#84,.F.);
#106=ORIENTED_EDGE('',*,*,#80,.F.);
#107=ORIENTED_EDGE('',*,*,#83,.T.);
#108=ORIENTED_EDGE('',*,*,#85,.T.);
#109=ORIENTED_EDGE('',*,*,#86,.F.);
#110=ORIENTED_EDGE('',*,*,#85,.F.);
#111=ORIENTED_EDGE('',*,*,#87,.F.);
#112=ORIENTED_EDGE('',*,*,#86,.T.);
#113=ORIENTED_EDGE('',*,*,#81,.F.);
#114=ORIENTED_EDGE('',*,*,#88,.T.);
#115=ORIENTED_EDGE('',*,*,#87,.T.);
#116=ORIENTED_EDGE('',*,*,#88,.F.);
#117=TOROIDAL_SURFACE('',#141,5.85,1.5);
#118=ADVANCED_FACE('',(#34),#117,.T.);
#119=ADVANCED_FACE('',(#35),#31,.T.);
#120=ADVANCED_FACE('',(#36),#19,.T.);
#121=ADVANCED_FACE('',(#37,#16),#20,.T.);
#122=ADVANCED_FACE('',(#38),#32,.T.);
#123=ADVANCED_FACE('',(#39,#17),#21,.T.);
#124=ADVANCED_FACE('',(#40),#15,.F.);
#125=ADVANCED_FACE('',(#41,#18),#22,.T.);
#126=ADVANCED_FACE('',(#42),#33,.T.);
#127=CLOSED_SHELL('',(#118,#119,#120,#121,#122,#123,#124,#125,#126));
#128=DERIVED_UNIT_ELEMENT(#130,1.);
#129=DERIVED_UNIT_ELEMENT(#243,-3.);
#130=(
MASS_UNIT()
NAMED_UNIT(*)
SI_UNIT(.KILO.,.GRAM.)
);
#131=DERIVED_UNIT((#128,#129));
#132=MEASURE_REPRESENTATION_ITEM('density measure',
POSITIVE_RATIO_MEASURE(2700.),#131);
#133=PROPERTY_DEFINITION_REPRESENTATION(#138,#135);
#134=PROPERTY_DEFINITION_REPRESENTATION(#139,#136);
#135=REPRESENTATION('material name',(#137),#240);
#136=REPRESENTATION('density',(#132),#240);
#137=DESCRIPTIVE_REPRESENTATION_ITEM('Aluminium','Aluminium');
#138=PROPERTY_DEFINITION('material property','material name',#250);
#139=PROPERTY_DEFINITION('material property','density of part',#250);
#140=AXIS2_PLACEMENT_3D('placement',#204,#160,#161);
#141=AXIS2_PLACEMENT_3D('',#205,#162,#163);
#142=AXIS2_PLACEMENT_3D('',#207,#164,#165);
#143=AXIS2_PLACEMENT_3D('',#209,#166,#167);
#144=AXIS2_PLACEMENT_3D('',#211,#168,#169);
#145=AXIS2_PLACEMENT_3D('',#212,#170,#171);
#146=AXIS2_PLACEMENT_3D('',#213,#172,#173);
#147=AXIS2_PLACEMENT_3D('',#216,#175,#176);
#148=AXIS2_PLACEMENT_3D('',#217,#177,#178);
#149=AXIS2_PLACEMENT_3D('',#218,#179,#180);
#150=AXIS2_PLACEMENT_3D('',#220,#181,#182);
#151=AXIS2_PLACEMENT_3D('',#222,#183,#184);
#152=AXIS2_PLACEMENT_3D('',#223,#185,#186);
#153=AXIS2_PLACEMENT_3D('',#225,#187,#188);
#154=AXIS2_PLACEMENT_3D('',#227,#190,#191);
#155=AXIS2_PLACEMENT_3D('',#228,#192,#193);
#156=AXIS2_PLACEMENT_3D('',#232,#195,#196);
#157=AXIS2_PLACEMENT_3D('',#233,#197,#198);
#158=AXIS2_PLACEMENT_3D('',#235,#199,#200);
#159=AXIS2_PLACEMENT_3D('',#236,#201,#202);
#160=DIRECTION('axis',(0.,0.,1.));
#161=DIRECTION('refdir',(1.,0.,0.));
#162=DIRECTION('center_axis',(0.,-1.51050751649681E-16,-1.));
#163=DIRECTION('ref_axis',(-1.,0.,0.));
#164=DIRECTION('center_axis',(0.,1.51050751649681E-16,1.));
#165=DIRECTION('ref_axis',(6.12323399573676E-17,-1.,1.51050751649681E-16));
#166=DIRECTION('center_axis',(-1.22464679914735E-16,-1.,1.51050751649681E-16));
#167=DIRECTION('ref_axis',(1.,-1.22464679914735E-16,0.));
#168=DIRECTION('center_axis',(0.,-1.51050751649681E-16,-1.));
#169=DIRECTION('ref_axis',(6.12323399573676E-17,-1.,1.51050751649681E-16));
#170=DIRECTION('center_axis',(0.,-1.51050751649681E-16,-1.));
#171=DIRECTION('ref_axis',(6.12323399573676E-17,-1.,1.51050751649681E-16));
#172=DIRECTION('center_axis',(0.,-1.51050751649681E-16,-1.));
#173=DIRECTION('ref_axis',(0.,1.,-1.38777878078145E-16));
#174=DIRECTION('',(0.,1.51050751649681E-16,1.));
#175=DIRECTION('center_axis',(0.,-1.51050751649681E-16,-1.));
#176=DIRECTION('ref_axis',(1.,0.,0.));
#177=DIRECTION('center_axis',(0.,-1.51050751649681E-16,-1.));
#178=DIRECTION('ref_axis',(-1.,0.,0.));
#179=DIRECTION('center_axis',(0.,-1.51050751649681E-16,-1.));
#180=DIRECTION('ref_axis',(-1.,0.,0.));
#181=DIRECTION('center_axis',(0.,1.51050751649681E-16,1.));
#182=DIRECTION('ref_axis',(0.,1.,-1.38777878078145E-16));
#183=DIRECTION('center_axis',(0.,-1.51050751649681E-16,-1.));
#184=DIRECTION('ref_axis',(1.,0.,0.));
#185=DIRECTION('center_axis',(0.,-1.51050751649681E-16,-1.));
#186=DIRECTION('ref_axis',(0.,1.,-1.38777878078145E-16));
#187=DIRECTION('center_axis',(0.,-1.51050751649681E-16,-1.));
#188=DIRECTION('ref_axis',(1.,0.,0.));
#189=DIRECTION('',(0.,1.51050751649681E-16,1.));
#190=DIRECTION('center_axis',(0.,1.51050751649681E-16,1.));
#191=DIRECTION('ref_axis',(1.,0.,0.));
#192=DIRECTION('center_axis',(0.,1.51050751649681E-16,1.));
#193=DIRECTION('ref_axis',(0.,1.,-1.38777878078145E-16));
#194=DIRECTION('',(-8.65956056234989E-17,-0.707106781186135,0.70710678118696));
#195=DIRECTION('center_axis',(0.,-1.51050751649681E-16,-1.));
#196=DIRECTION('ref_axis',(1.,0.,0.));
#197=DIRECTION('center_axis',(0.,1.51050751649681E-16,1.));
#198=DIRECTION('ref_axis',(1.,0.,0.));
#199=DIRECTION('center_axis',(0.,-1.51050751649681E-16,-1.));
#200=DIRECTION('ref_axis',(0.,1.,-1.38777878078145E-16));
#201=DIRECTION('center_axis',(0.,-1.51050751649681E-16,-1.));
#202=DIRECTION('ref_axis',(0.,1.,-1.38777878078145E-16));
#203=DIRECTION('',(0.,1.51050751649681E-16,1.));
#204=CARTESIAN_POINT('',(0.,0.,0.));
#205=CARTESIAN_POINT('Origin',(0.,-3.77626879124368E-16,-6.50000000000233));
#206=CARTESIAN_POINT('',(5.85,-1.32062138410009E-15,-8.00000000000233));
#207=CARTESIAN_POINT('Origin',(0.,-6.0420300659889E-16,-8.00000000000233));
#208=CARTESIAN_POINT('',(7.35,-1.27774227649767E-15,-6.50000000000233));
#209=CARTESIAN_POINT('Origin',(5.85,-1.09404525662557E-15,-6.50000000000233));
#210=CARTESIAN_POINT('',(-9.00115397373305E-16,-7.35,-6.50000000000233));
#211=CARTESIAN_POINT('Origin',(0.,-3.77626879124368E-16,-6.50000000000233));
#212=CARTESIAN_POINT('Origin',(0.,-3.77626879124368E-16,-6.50000000000233));
#213=CARTESIAN_POINT('Origin',(0.,-4.53152254949507E-16,-7.00000000000431));
#214=CARTESIAN_POINT('',(-9.00115397373305E-16,-7.35,-6.00000000000628));
#215=CARTESIAN_POINT('',(-9.00115397373305E-16,-7.35,-7.0000000000043));
#216=CARTESIAN_POINT('Origin',(0.,-3.02101503300124E-16,-6.00000000000628));
#217=CARTESIAN_POINT('Origin',(0.,7.1291633249881E-33,-8.00000000000233));
#218=CARTESIAN_POINT('Origin',(0.,3.20000000000047,-4.));
#219=CARTESIAN_POINT('',(4.81653586104654E-16,-3.933,-4.));
#220=CARTESIAN_POINT('Origin',(0.,1.86799797166007E-28,-4.));
#221=CARTESIAN_POINT('',(-3.9188697572716E-16,-3.20000000000006,-4.));
#222=CARTESIAN_POINT('Origin',(0.,1.86768982286897E-28,-4.));
#223=CARTESIAN_POINT('Origin',(0.,-1.51050751649459E-16,-4.99999999999977));
#224=CARTESIAN_POINT('',(-3.9188697572716E-16,-3.20000000000006,-5.99999999999953));
#225=CARTESIAN_POINT('Origin',(0.,-3.02101503299105E-16,-5.99999999999953));
#226=CARTESIAN_POINT('',(-3.9188697572716E-16,-3.20000000000006,-4.99999999999977));
#227=CARTESIAN_POINT('Origin',(0.,7.35,-6.00000000000628));
#228=CARTESIAN_POINT('Origin',(0.,5.8532166264269E-16,-0.125000000000073));
#229=CARTESIAN_POINT('',(0.,0.,-0.25));
#230=CARTESIAN_POINT('',(-3.06161699786303E-17,-0.249999999999562,-1.45630035808253E-13));
#231=CARTESIAN_POINT('',(-1.53080849893151E-17,-0.12499999999978,-0.125000000000073));
#232=CARTESIAN_POINT('Origin',(0.,6.0420300659889E-16,-1.45716771982052E-13));
#233=CARTESIAN_POINT('Origin',(0.,4.,-2.33146835171283E-12));
#234=CARTESIAN_POINT('',(-4.81653586104654E-16,-3.933,-2.33036742680603E-12));
#235=CARTESIAN_POINT('Origin',(0.,6.0420300659856E-16,-2.33091324020052E-12));
#236=CARTESIAN_POINT('Origin',(0.,3.02101503299373E-16,-2.00000000000116));
#237=CARTESIAN_POINT('',(-4.81653586104654E-16,-3.933,-2.00000000000116));
#238=UNCERTAINTY_MEASURE_WITH_UNIT(LENGTH_MEASURE(0.01),#242,
'DISTANCE_ACCURACY_VALUE',
'Maximum model space distance between geometric entities at asserted c
onnectivities');
#239=UNCERTAINTY_MEASURE_WITH_UNIT(LENGTH_MEASURE(0.01),#242,
'DISTANCE_ACCURACY_VALUE',
'Maximum model space distance between geometric entities at asserted c
onnectivities');
#240=(
GEOMETRIC_REPRESENTATION_CONTEXT(3)
GLOBAL_UNCERTAINTY_ASSIGNED_CONTEXT((#238))
GLOBAL_UNIT_ASSIGNED_CONTEXT((#242,#244,#245))
REPRESENTATION_CONTEXT('','3D')
);
#241=(
GEOMETRIC_REPRESENTATION_CONTEXT(3)
GLOBAL_UNCERTAINTY_ASSIGNED_CONTEXT((#239))
GLOBAL_UNIT_ASSIGNED_CONTEXT((#242,#244,#245))
REPRESENTATION_CONTEXT('','3D')
);
#242=(
LENGTH_UNIT()
NAMED_UNIT(*)
SI_UNIT(.MILLI.,.METRE.)
);
#243=(
LENGTH_UNIT()
NAMED_UNIT(*)
SI_UNIT($,.METRE.)
);
#244=(
NAMED_UNIT(*)
PLANE_ANGLE_UNIT()
SI_UNIT($,.RADIAN.)
);
#245=(
NAMED_UNIT(*)
SI_UNIT($,.STERADIAN.)
SOLID_ANGLE_UNIT()
);
#246=SHAPE_DEFINITION_REPRESENTATION(#247,#248);
#247=PRODUCT_DEFINITION_SHAPE('',$,#250);
#248=SHAPE_REPRESENTATION('',(#140),#240);
#249=PRODUCT_DEFINITION_CONTEXT('part definition',#254,'design');
#250=PRODUCT_DEFINITION('HAB.0012 BOUCHON CENTRE',
'HAB.0012 BOUCHON CENTRE v31',#251,#249);
#251=PRODUCT_DEFINITION_FORMATION('',$,#256);
#252=PRODUCT_RELATED_PRODUCT_CATEGORY('HAB.0012 BOUCHON CENTRE v31',
'HAB.0012 BOUCHON CENTRE v31',(#256));
#253=APPLICATION_PROTOCOL_DEFINITION('international standard',
'automotive_design',2009,#254);
#254=APPLICATION_CONTEXT(
'Core Data for Automotive Mechanical Design Process');
#255=PRODUCT_CONTEXT('part definition',#254,'mechanical');
#256=PRODUCT('HAB.0012 BOUCHON CENTRE','HAB.0012 BOUCHON CENTRE v31',
'PIECE-HABILL-AIGUILLE',(#255));
#257=PRESENTATION_STYLE_ASSIGNMENT((#259));
#258=PRESENTATION_STYLE_ASSIGNMENT((#260));
#259=SURFACE_STYLE_USAGE(.BOTH.,#261);
#260=SURFACE_STYLE_USAGE(.BOTH.,#262);
#261=SURFACE_SIDE_STYLE('',(#263));
#262=SURFACE_SIDE_STYLE('',(#264));
#263=SURFACE_STYLE_FILL_AREA(#265);
#264=SURFACE_STYLE_FILL_AREA(#266);
#265=FILL_AREA_STYLE('Aluminium - Satin\X\E9',(#267));
#266=FILL_AREA_STYLE('KERIS ALU MICROBILLAGE ANODISATION GRIS',(#268));
#267=FILL_AREA_STYLE_COLOUR('Aluminium - Satin\X\E9',#269);
#268=FILL_AREA_STYLE_COLOUR('KERIS ALU MICROBILLAGE ANODISATION GRIS',#270);
#269=COLOUR_RGB('Aluminium - Satin\X\E9',0.96078431372549,0.96078431372549,
0.964705882352941);
#270=COLOUR_RGB('KERIS ALU MICROBILLAGE ANODISATION GRIS',1.,1.,1.);
ENDSEC;
END-ISO-10303-21;
