ISO-10303-21;
HEADER;
/* Generated by software containing ST-Developer
 * from STEP Tools, Inc. (www.steptools.com) 
 */

FILE_DESCRIPTION(
/* description */ (''),
/* implementation_level */ '2;1');

FILE_NAME(
/* name */ 
'C:/Users/Philippe/Desktop/MOBICO/Client/Deegle/Devis/Laser-final/Dir-
platine-bute-pivot.step',
/* time_stamp */ '2022-08-17T09:09:46+02:00',
/* author */ (''),
/* organization */ (''),
/* preprocessor_version */ 'ST-DEVELOPER v19',
/* originating_system */ 'Autodesk Translation Framework v11.7.0.108',
/* authorisation */ '');

FILE_SCHEMA (('AUTOMOTIVE_DESIGN { 1 0 10303 214 3 1 1 }'));
ENDSEC;

DATA;
#10=MECHANICAL_DESIGN_GEOMETRIC_PRESENTATION_REPRESENTATION('',(#13),#335);
#11=SHAPE_REPRESENTATION_RELATIONSHIP('SRR','None',#342,#12);
#12=ADVANCED_BREP_SHAPE_REPRESENTATION('',(#14),#334);
#13=STYLED_ITEM('',(#351),#14);
#14=MANIFOLD_SOLID_BREP('Corps1',#187);
#15=FACE_BOUND('',#42,.T.);
#16=FACE_BOUND('',#43,.T.);
#17=FACE_BOUND('',#45,.T.);
#18=FACE_BOUND('',#46,.T.);
#19=PLANE('',#216);
#20=PLANE('',#220);
#21=PLANE('',#221);
#22=PLANE('',#222);
#23=FACE_OUTER_BOUND('',#33,.T.);
#24=FACE_OUTER_BOUND('',#34,.T.);
#25=FACE_OUTER_BOUND('',#35,.T.);
#26=FACE_OUTER_BOUND('',#36,.T.);
#27=FACE_OUTER_BOUND('',#37,.T.);
#28=FACE_OUTER_BOUND('',#38,.T.);
#29=FACE_OUTER_BOUND('',#39,.T.);
#30=FACE_OUTER_BOUND('',#40,.T.);
#31=FACE_OUTER_BOUND('',#41,.T.);
#32=FACE_OUTER_BOUND('',#44,.T.);
#33=EDGE_LOOP('',(#123,#124,#125,#126));
#34=EDGE_LOOP('',(#127,#128,#129,#130));
#35=EDGE_LOOP('',(#131,#132,#133,#134));
#36=EDGE_LOOP('',(#135,#136,#137,#138));
#37=EDGE_LOOP('',(#139,#140,#141,#142));
#38=EDGE_LOOP('',(#143,#144,#145,#146));
#39=EDGE_LOOP('',(#147,#148,#149,#150));
#40=EDGE_LOOP('',(#151,#152,#153,#154));
#41=EDGE_LOOP('',(#155,#156,#157,#158,#159,#160));
#42=EDGE_LOOP('',(#161));
#43=EDGE_LOOP('',(#162));
#44=EDGE_LOOP('',(#163,#164,#165,#166,#167,#168));
#45=EDGE_LOOP('',(#169));
#46=EDGE_LOOP('',(#170));
#47=LINE('',#286,#59);
#48=LINE('',#292,#60);
#49=LINE('',#299,#61);
#50=LINE('',#302,#62);
#51=LINE('',#308,#63);
#52=LINE('',#314,#64);
#53=LINE('',#317,#65);
#54=LINE('',#319,#66);
#55=LINE('',#320,#67);
#56=LINE('',#326,#68);
#57=LINE('',#328,#69);
#58=LINE('',#329,#70);
#59=VECTOR('',#229,5.);
#60=VECTOR('',#236,5.);
#61=VECTOR('',#243,10.);
#62=VECTOR('',#246,10.);
#63=VECTOR('',#253,10.);
#64=VECTOR('',#260,10.);
#65=VECTOR('',#263,10.);
#66=VECTOR('',#264,10.);
#67=VECTOR('',#265,10.);
#68=VECTOR('',#272,10.);
#69=VECTOR('',#275,10.);
#70=VECTOR('',#276,10.);
#71=CIRCLE('',#202,5.);
#72=CIRCLE('',#203,5.);
#73=CIRCLE('',#205,5.);
#74=CIRCLE('',#206,5.);
#75=CIRCLE('',#208,8.);
#76=CIRCLE('',#209,8.);
#77=CIRCLE('',#211,38.);
#78=CIRCLE('',#212,38.);
#79=CIRCLE('',#214,8.);
#80=CIRCLE('',#215,8.);
#81=CIRCLE('',#218,16.5);
#82=CIRCLE('',#219,16.5);
#83=VERTEX_POINT('',#283);
#84=VERTEX_POINT('',#285);
#85=VERTEX_POINT('',#289);
#86=VERTEX_POINT('',#291);
#87=VERTEX_POINT('',#295);
#88=VERTEX_POINT('',#296);
#89=VERTEX_POINT('',#298);
#90=VERTEX_POINT('',#300);
#91=VERTEX_POINT('',#304);
#92=VERTEX_POINT('',#306);
#93=VERTEX_POINT('',#310);
#94=VERTEX_POINT('',#312);
#95=VERTEX_POINT('',#316);
#96=VERTEX_POINT('',#318);
#97=VERTEX_POINT('',#322);
#98=VERTEX_POINT('',#324);
#99=EDGE_CURVE('',#83,#83,#71,.T.);
#100=EDGE_CURVE('',#83,#84,#47,.T.);
#101=EDGE_CURVE('',#84,#84,#72,.T.);
#102=EDGE_CURVE('',#85,#85,#73,.T.);
#103=EDGE_CURVE('',#85,#86,#48,.T.);
#104=EDGE_CURVE('',#86,#86,#74,.T.);
#105=EDGE_CURVE('',#87,#88,#75,.T.);
#106=EDGE_CURVE('',#87,#89,#49,.T.);
#107=EDGE_CURVE('',#90,#89,#76,.T.);
#108=EDGE_CURVE('',#88,#90,#50,.T.);
#109=EDGE_CURVE('',#88,#91,#77,.T.);
#110=EDGE_CURVE('',#92,#90,#78,.T.);
#111=EDGE_CURVE('',#91,#92,#51,.T.);
#112=EDGE_CURVE('',#91,#93,#79,.T.);
#113=EDGE_CURVE('',#94,#92,#80,.T.);
#114=EDGE_CURVE('',#93,#94,#52,.T.);
#115=EDGE_CURVE('',#93,#95,#53,.T.);
#116=EDGE_CURVE('',#96,#94,#54,.T.);
#117=EDGE_CURVE('',#95,#96,#55,.T.);
#118=EDGE_CURVE('',#95,#97,#81,.T.);
#119=EDGE_CURVE('',#98,#96,#82,.T.);
#120=EDGE_CURVE('',#97,#98,#56,.T.);
#121=EDGE_CURVE('',#97,#87,#57,.T.);
#122=EDGE_CURVE('',#89,#98,#58,.T.);
#123=ORIENTED_EDGE('',*,*,#99,.F.);
#124=ORIENTED_EDGE('',*,*,#100,.T.);
#125=ORIENTED_EDGE('',*,*,#101,.F.);
#126=ORIENTED_EDGE('',*,*,#100,.F.);
#127=ORIENTED_EDGE('',*,*,#102,.F.);
#128=ORIENTED_EDGE('',*,*,#103,.T.);
#129=ORIENTED_EDGE('',*,*,#104,.F.);
#130=ORIENTED_EDGE('',*,*,#103,.F.);
#131=ORIENTED_EDGE('',*,*,#105,.F.);
#132=ORIENTED_EDGE('',*,*,#106,.T.);
#133=ORIENTED_EDGE('',*,*,#107,.F.);
#134=ORIENTED_EDGE('',*,*,#108,.F.);
#135=ORIENTED_EDGE('',*,*,#109,.F.);
#136=ORIENTED_EDGE('',*,*,#108,.T.);
#137=ORIENTED_EDGE('',*,*,#110,.F.);
#138=ORIENTED_EDGE('',*,*,#111,.F.);
#139=ORIENTED_EDGE('',*,*,#112,.F.);
#140=ORIENTED_EDGE('',*,*,#111,.T.);
#141=ORIENTED_EDGE('',*,*,#113,.F.);
#142=ORIENTED_EDGE('',*,*,#114,.F.);
#143=ORIENTED_EDGE('',*,*,#115,.F.);
#144=ORIENTED_EDGE('',*,*,#114,.T.);
#145=ORIENTED_EDGE('',*,*,#116,.F.);
#146=ORIENTED_EDGE('',*,*,#117,.F.);
#147=ORIENTED_EDGE('',*,*,#118,.F.);
#148=ORIENTED_EDGE('',*,*,#117,.T.);
#149=ORIENTED_EDGE('',*,*,#119,.F.);
#150=ORIENTED_EDGE('',*,*,#120,.F.);
#151=ORIENTED_EDGE('',*,*,#121,.F.);
#152=ORIENTED_EDGE('',*,*,#120,.T.);
#153=ORIENTED_EDGE('',*,*,#122,.F.);
#154=ORIENTED_EDGE('',*,*,#106,.F.);
#155=ORIENTED_EDGE('',*,*,#121,.T.);
#156=ORIENTED_EDGE('',*,*,#105,.T.);
#157=ORIENTED_EDGE('',*,*,#109,.T.);
#158=ORIENTED_EDGE('',*,*,#112,.T.);
#159=ORIENTED_EDGE('',*,*,#115,.T.);
#160=ORIENTED_EDGE('',*,*,#118,.T.);
#161=ORIENTED_EDGE('',*,*,#104,.T.);
#162=ORIENTED_EDGE('',*,*,#101,.T.);
#163=ORIENTED_EDGE('',*,*,#122,.T.);
#164=ORIENTED_EDGE('',*,*,#119,.T.);
#165=ORIENTED_EDGE('',*,*,#116,.T.);
#166=ORIENTED_EDGE('',*,*,#113,.T.);
#167=ORIENTED_EDGE('',*,*,#110,.T.);
#168=ORIENTED_EDGE('',*,*,#107,.T.);
#169=ORIENTED_EDGE('',*,*,#102,.T.);
#170=ORIENTED_EDGE('',*,*,#99,.T.);
#171=CYLINDRICAL_SURFACE('',#201,5.);
#172=CYLINDRICAL_SURFACE('',#204,5.);
#173=CYLINDRICAL_SURFACE('',#207,8.);
#174=CYLINDRICAL_SURFACE('',#210,38.);
#175=CYLINDRICAL_SURFACE('',#213,8.);
#176=CYLINDRICAL_SURFACE('',#217,16.5);
#177=ADVANCED_FACE('',(#23),#171,.F.);
#178=ADVANCED_FACE('',(#24),#172,.F.);
#179=ADVANCED_FACE('',(#25),#173,.T.);
#180=ADVANCED_FACE('',(#26),#174,.T.);
#181=ADVANCED_FACE('',(#27),#175,.T.);
#182=ADVANCED_FACE('',(#28),#19,.T.);
#183=ADVANCED_FACE('',(#29),#176,.F.);
#184=ADVANCED_FACE('',(#30),#20,.T.);
#185=ADVANCED_FACE('',(#31,#15,#16),#21,.F.);
#186=ADVANCED_FACE('',(#32,#17,#18),#22,.T.);
#187=CLOSED_SHELL('',(#177,#178,#179,#180,#181,#182,#183,#184,#185,#186));
#188=DERIVED_UNIT_ELEMENT(#190,1.);
#189=DERIVED_UNIT_ELEMENT(#337,-3.);
#190=(
MASS_UNIT()
NAMED_UNIT(*)
SI_UNIT(.KILO.,.GRAM.)
);
#191=DERIVED_UNIT((#188,#189));
#192=MEASURE_REPRESENTATION_ITEM('density measure',
POSITIVE_RATIO_MEASURE(7850.),#191);
#193=PROPERTY_DEFINITION_REPRESENTATION(#198,#195);
#194=PROPERTY_DEFINITION_REPRESENTATION(#199,#196);
#195=REPRESENTATION('material name',(#197),#334);
#196=REPRESENTATION('density',(#192),#334);
#197=DESCRIPTIVE_REPRESENTATION_ITEM('Acier','Acier');
#198=PROPERTY_DEFINITION('material property','material name',#344);
#199=PROPERTY_DEFINITION('material property','density of part',#344);
#200=AXIS2_PLACEMENT_3D('placement',#281,#223,#224);
#201=AXIS2_PLACEMENT_3D('',#282,#225,#226);
#202=AXIS2_PLACEMENT_3D('',#284,#227,#228);
#203=AXIS2_PLACEMENT_3D('',#287,#230,#231);
#204=AXIS2_PLACEMENT_3D('',#288,#232,#233);
#205=AXIS2_PLACEMENT_3D('',#290,#234,#235);
#206=AXIS2_PLACEMENT_3D('',#293,#237,#238);
#207=AXIS2_PLACEMENT_3D('',#294,#239,#240);
#208=AXIS2_PLACEMENT_3D('',#297,#241,#242);
#209=AXIS2_PLACEMENT_3D('',#301,#244,#245);
#210=AXIS2_PLACEMENT_3D('',#303,#247,#248);
#211=AXIS2_PLACEMENT_3D('',#305,#249,#250);
#212=AXIS2_PLACEMENT_3D('',#307,#251,#252);
#213=AXIS2_PLACEMENT_3D('',#309,#254,#255);
#214=AXIS2_PLACEMENT_3D('',#311,#256,#257);
#215=AXIS2_PLACEMENT_3D('',#313,#258,#259);
#216=AXIS2_PLACEMENT_3D('',#315,#261,#262);
#217=AXIS2_PLACEMENT_3D('',#321,#266,#267);
#218=AXIS2_PLACEMENT_3D('',#323,#268,#269);
#219=AXIS2_PLACEMENT_3D('',#325,#270,#271);
#220=AXIS2_PLACEMENT_3D('',#327,#273,#274);
#221=AXIS2_PLACEMENT_3D('',#330,#277,#278);
#222=AXIS2_PLACEMENT_3D('',#331,#279,#280);
#223=DIRECTION('axis',(0.,0.,1.));
#224=DIRECTION('refdir',(1.,0.,0.));
#225=DIRECTION('center_axis',(0.,-1.,0.));
#226=DIRECTION('ref_axis',(1.,0.,0.));
#227=DIRECTION('center_axis',(0.,1.,0.));
#228=DIRECTION('ref_axis',(1.,0.,0.));
#229=DIRECTION('',(0.,1.,0.));
#230=DIRECTION('center_axis',(0.,-1.,0.));
#231=DIRECTION('ref_axis',(1.,0.,0.));
#232=DIRECTION('center_axis',(0.,-1.,0.));
#233=DIRECTION('ref_axis',(1.,0.,0.));
#234=DIRECTION('center_axis',(0.,1.,0.));
#235=DIRECTION('ref_axis',(1.,0.,0.));
#236=DIRECTION('',(0.,1.,0.));
#237=DIRECTION('center_axis',(0.,-1.,0.));
#238=DIRECTION('ref_axis',(1.,0.,0.));
#239=DIRECTION('center_axis',(0.,-1.,0.));
#240=DIRECTION('ref_axis',(1.,0.,0.));
#241=DIRECTION('center_axis',(0.,1.,0.));
#242=DIRECTION('ref_axis',(1.,0.,0.));
#243=DIRECTION('',(0.,-1.,0.));
#244=DIRECTION('center_axis',(0.,-1.,0.));
#245=DIRECTION('ref_axis',(1.,0.,0.));
#246=DIRECTION('',(0.,-1.,0.));
#247=DIRECTION('center_axis',(0.,-1.,0.));
#248=DIRECTION('ref_axis',(1.,0.,0.));
#249=DIRECTION('center_axis',(0.,1.,0.));
#250=DIRECTION('ref_axis',(1.,0.,0.));
#251=DIRECTION('center_axis',(0.,-1.,0.));
#252=DIRECTION('ref_axis',(1.,0.,0.));
#253=DIRECTION('',(0.,-1.,0.));
#254=DIRECTION('center_axis',(0.,-1.,0.));
#255=DIRECTION('ref_axis',(-0.989927680506585,0.,0.141573964297296));
#256=DIRECTION('center_axis',(0.,1.,0.));
#257=DIRECTION('ref_axis',(1.,0.,0.));
#258=DIRECTION('center_axis',(0.,-1.,0.));
#259=DIRECTION('ref_axis',(1.,0.,0.));
#260=DIRECTION('',(0.,-1.,0.));
#261=DIRECTION('center_axis',(-0.486763216434559,0.,0.873533955336759));
#262=DIRECTION('ref_axis',(-0.873533955336759,0.,-0.486763216434559));
#263=DIRECTION('',(0.873533955336759,0.,0.486763216434559));
#264=DIRECTION('',(-0.873533955336759,0.,-0.486763216434559));
#265=DIRECTION('',(0.,-1.,0.));
#266=DIRECTION('center_axis',(0.,-1.,0.));
#267=DIRECTION('ref_axis',(1.,0.,0.));
#268=DIRECTION('center_axis',(0.,-1.,0.));
#269=DIRECTION('ref_axis',(1.,0.,0.));
#270=DIRECTION('center_axis',(0.,1.,0.));
#271=DIRECTION('ref_axis',(1.,0.,0.));
#272=DIRECTION('',(0.,-1.,0.));
#273=DIRECTION('center_axis',(0.486763216434513,0.,0.873533955336785));
#274=DIRECTION('ref_axis',(-0.873533955336785,0.,0.486763216434513));
#275=DIRECTION('',(0.873533955336785,0.,-0.486763216434513));
#276=DIRECTION('',(-0.873533955336785,0.,0.486763216434513));
#277=DIRECTION('center_axis',(0.,-1.,0.));
#278=DIRECTION('ref_axis',(0.,0.,-1.));
#279=DIRECTION('center_axis',(0.,-1.,0.));
#280=DIRECTION('ref_axis',(0.,0.,-1.));
#281=CARTESIAN_POINT('',(0.,0.,0.));
#282=CARTESIAN_POINT('Origin',(-21.3629620607589,35.,-21.0623800172387));
#283=CARTESIAN_POINT('',(-26.3629620607589,30.,-21.0623800172387));
#284=CARTESIAN_POINT('Origin',(-21.3629620607589,30.,-21.0623800172387));
#285=CARTESIAN_POINT('',(-26.3629620607589,35.,-21.0623800172387));
#286=CARTESIAN_POINT('',(-26.3629620607589,35.,-21.0623800172387));
#287=CARTESIAN_POINT('Origin',(-21.3629620607589,35.,-21.0623800172387));
#288=CARTESIAN_POINT('Origin',(21.3629620607589,35.,-21.0623800172387));
#289=CARTESIAN_POINT('',(16.3629620607589,30.,-21.0623800172387));
#290=CARTESIAN_POINT('Origin',(21.3629620607589,30.,-21.0623800172387));
#291=CARTESIAN_POINT('',(16.3629620607589,35.,-21.0623800172387));
#292=CARTESIAN_POINT('',(16.3629620607589,35.,-21.0623800172387));
#293=CARTESIAN_POINT('Origin',(21.3629620607589,35.,-21.0623800172387));
#294=CARTESIAN_POINT('Origin',(21.3629620607589,35.,-21.0623800172387));
#295=CARTESIAN_POINT('',(25.2570677922365,35.,-14.0741083745435));
#296=CARTESIAN_POINT('',(27.0597519436407,35.,-26.6790146884894));
#297=CARTESIAN_POINT('Origin',(21.3629620607589,35.,-21.0623800172387));
#298=CARTESIAN_POINT('',(25.2570677922365,30.,-14.0741083745435));
#299=CARTESIAN_POINT('',(25.2570677922365,35.,-14.0741083745435));
#300=CARTESIAN_POINT('',(27.0597519436407,30.,-26.6790146884894));
#301=CARTESIAN_POINT('Origin',(21.3629620607589,30.,-21.0623800172387));
#302=CARTESIAN_POINT('',(27.0597519436407,35.,-26.6790146884894));
#303=CARTESIAN_POINT('Origin',(0.,35.,0.));
#304=CARTESIAN_POINT('',(-27.0597516046747,35.,-26.6790150322928));
#305=CARTESIAN_POINT('Origin',(0.,35.,0.));
#306=CARTESIAN_POINT('',(-27.0597516046747,30.,-26.6790150322928));
#307=CARTESIAN_POINT('Origin',(0.,30.,0.));
#308=CARTESIAN_POINT('',(-27.0597516046747,35.,-26.6790150322928));
#309=CARTESIAN_POINT('Origin',(-21.3629620607589,35.,-21.0623800172387));
#310=CARTESIAN_POINT('',(-25.2570677922354,35.,-14.0741083745446));
#311=CARTESIAN_POINT('Origin',(-21.3629620607589,35.,-21.0623800172387));
#312=CARTESIAN_POINT('',(-25.2570677922354,30.,-14.0741083745446));
#313=CARTESIAN_POINT('Origin',(-21.3629620607589,30.,-21.0623800172387));
#314=CARTESIAN_POINT('',(-25.2570677922354,35.,-14.0741083745446));
#315=CARTESIAN_POINT('Origin',(-14.4133102630565,35.,-8.03159307117022));
#316=CARTESIAN_POINT('',(-14.4133102630565,35.,-8.03159307117022));
#317=CARTESIAN_POINT('',(-17.5217405470301,35.,-9.76371752248161));
#318=CARTESIAN_POINT('',(-14.4133102630565,30.,-8.03159307117022));
#319=CARTESIAN_POINT('',(-17.5217405470301,30.,-9.76371752248161));
#320=CARTESIAN_POINT('',(-14.4133102630565,35.,-8.03159307117022));
#321=CARTESIAN_POINT('Origin',(0.,35.,0.));
#322=CARTESIAN_POINT('',(14.4133102630569,35.,-8.03159307116946));
#323=CARTESIAN_POINT('Origin',(0.,35.,0.));
#324=CARTESIAN_POINT('',(14.4133102630569,30.,-8.03159307116946));
#325=CARTESIAN_POINT('Origin',(0.,30.,0.));
#326=CARTESIAN_POINT('',(14.4133102630569,35.,-8.03159307116946));
#327=CARTESIAN_POINT('Origin',(25.2570677922365,35.,-14.0741083745435));
#328=CARTESIAN_POINT('',(12.0998617824406,35.,-6.74245987079351));
#329=CARTESIAN_POINT('',(12.0998617824406,30.,-6.74245987079351));
#330=CARTESIAN_POINT('Origin',(8.88178419700125E-15,35.,-23.0157965355847));
#331=CARTESIAN_POINT('Origin',(8.88178419700125E-15,30.,-23.0157965355847));
#332=UNCERTAINTY_MEASURE_WITH_UNIT(LENGTH_MEASURE(0.01),#336,
'DISTANCE_ACCURACY_VALUE',
'Maximum model space distance between geometric entities at asserted c
onnectivities');
#333=UNCERTAINTY_MEASURE_WITH_UNIT(LENGTH_MEASURE(0.01),#336,
'DISTANCE_ACCURACY_VALUE',
'Maximum model space distance between geometric entities at asserted c
onnectivities');
#334=(
GEOMETRIC_REPRESENTATION_CONTEXT(3)
GLOBAL_UNCERTAINTY_ASSIGNED_CONTEXT((#332))
GLOBAL_UNIT_ASSIGNED_CONTEXT((#336,#338,#339))
REPRESENTATION_CONTEXT('','3D')
);
#335=(
GEOMETRIC_REPRESENTATION_CONTEXT(3)
GLOBAL_UNCERTAINTY_ASSIGNED_CONTEXT((#333))
GLOBAL_UNIT_ASSIGNED_CONTEXT((#336,#338,#339))
REPRESENTATION_CONTEXT('','3D')
);
#336=(
LENGTH_UNIT()
NAMED_UNIT(*)
SI_UNIT(.MILLI.,.METRE.)
);
#337=(
LENGTH_UNIT()
NAMED_UNIT(*)
SI_UNIT($,.METRE.)
);
#338=(
NAMED_UNIT(*)
PLANE_ANGLE_UNIT()
SI_UNIT($,.RADIAN.)
);
#339=(
NAMED_UNIT(*)
SI_UNIT($,.STERADIAN.)
SOLID_ANGLE_UNIT()
);
#340=SHAPE_DEFINITION_REPRESENTATION(#341,#342);
#341=PRODUCT_DEFINITION_SHAPE('',$,#344);
#342=SHAPE_REPRESENTATION('',(#200),#334);
#343=PRODUCT_DEFINITION_CONTEXT('part definition',#348,'design');
#344=PRODUCT_DEFINITION('FusionComponent','FusionComponent',#345,#343);
#345=PRODUCT_DEFINITION_FORMATION('',$,#350);
#346=PRODUCT_RELATED_PRODUCT_CATEGORY('FusionComponent',
'FusionComponent',(#350));
#347=APPLICATION_PROTOCOL_DEFINITION('international standard',
'automotive_design',2009,#348);
#348=APPLICATION_CONTEXT(
'Core Data for Automotive Mechanical Design Process');
#349=PRODUCT_CONTEXT('part definition',#348,'mechanical');
#350=PRODUCT('FusionComponent','FusionComponent',$,(#349));
#351=PRESENTATION_STYLE_ASSIGNMENT((#352));
#352=SURFACE_STYLE_USAGE(.BOTH.,#353);
#353=SURFACE_SIDE_STYLE('',(#354));
#354=SURFACE_STYLE_FILL_AREA(#355);
#355=FILL_AREA_STYLE('Acier - Satin\X\E9',(#356));
#356=FILL_AREA_STYLE_COLOUR('Acier - Satin\X\E9',#357);
#357=COLOUR_RGB('Acier - Satin\X\E9',0.627450980392157,0.627450980392157,
0.627450980392157);
ENDSEC;
END-ISO-10303-21;
