ISO-10303-21;
HEADER;
/* Generated by software containing ST-Developer
 * from STEP Tools, Inc. (www.steptools.com) 
 */

FILE_DESCRIPTION(
/* description */ (''),
/* implementation_level */ '2;1');

FILE_NAME(
/* name */ 
'C:/Users/Philippe/Desktop/MOBICO/Client/Deegle/Devis/Laser-final/Chas
sis-butee-douille.step',
/* time_stamp */ '2022-08-17T10:56:44+02:00',
/* author */ (''),
/* organization */ (''),
/* preprocessor_version */ 'ST-DEVELOPER v19',
/* originating_system */ 'Autodesk Translation Framework v11.7.0.108',
/* authorisation */ '');

FILE_SCHEMA (('AUTOMOTIVE_DESIGN { 1 0 10303 214 3 1 1 }'));
ENDSEC;

DATA;
#10=MECHANICAL_DESIGN_GEOMETRIC_PRESENTATION_REPRESENTATION('',(#13),#187);
#11=SHAPE_REPRESENTATION_RELATIONSHIP('SRR','None',#194,#12);
#12=ADVANCED_BREP_SHAPE_REPRESENTATION('',(#14),#186);
#13=STYLED_ITEM('',(#204),#14);
#14=MANIFOLD_SOLID_BREP('Corps1',#103);
#15=PLANE('',#120);
#16=PLANE('',#121);
#17=PLANE('',#125);
#18=PLANE('',#126);
#19=FACE_OUTER_BOUND('',#25,.T.);
#20=FACE_OUTER_BOUND('',#26,.T.);
#21=FACE_OUTER_BOUND('',#27,.T.);
#22=FACE_OUTER_BOUND('',#28,.T.);
#23=FACE_OUTER_BOUND('',#29,.T.);
#24=FACE_OUTER_BOUND('',#30,.T.);
#25=EDGE_LOOP('',(#71,#72,#73,#74));
#26=EDGE_LOOP('',(#75,#76,#77,#78));
#27=EDGE_LOOP('',(#79,#80,#81,#82));
#28=EDGE_LOOP('',(#83,#84,#85,#86));
#29=EDGE_LOOP('',(#87,#88,#89,#90));
#30=EDGE_LOOP('',(#91,#92,#93,#94));
#31=CIRCLE('',#118,19.);
#32=CIRCLE('',#119,19.);
#33=CIRCLE('',#123,35.);
#34=CIRCLE('',#124,35.);
#35=LINE('',#161,#43);
#36=LINE('',#165,#44);
#37=LINE('',#169,#45);
#38=LINE('',#171,#46);
#39=LINE('',#172,#47);
#40=LINE('',#175,#48);
#41=LINE('',#177,#49);
#42=LINE('',#178,#50);
#43=VECTOR('',#131,10.);
#44=VECTOR('',#134,10.);
#45=VECTOR('',#139,10.);
#46=VECTOR('',#140,10.);
#47=VECTOR('',#141,10.);
#48=VECTOR('',#144,10.);
#49=VECTOR('',#145,10.);
#50=VECTOR('',#146,10.);
#51=VERTEX_POINT('',#159);
#52=VERTEX_POINT('',#160);
#53=VERTEX_POINT('',#162);
#54=VERTEX_POINT('',#164);
#55=VERTEX_POINT('',#168);
#56=VERTEX_POINT('',#170);
#57=VERTEX_POINT('',#174);
#58=VERTEX_POINT('',#176);
#59=EDGE_CURVE('',#51,#52,#35,.T.);
#60=EDGE_CURVE('',#52,#53,#31,.T.);
#61=EDGE_CURVE('',#53,#54,#36,.T.);
#62=EDGE_CURVE('',#54,#51,#32,.T.);
#63=EDGE_CURVE('',#53,#55,#37,.T.);
#64=EDGE_CURVE('',#55,#56,#38,.T.);
#65=EDGE_CURVE('',#54,#56,#39,.T.);
#66=EDGE_CURVE('',#57,#52,#40,.T.);
#67=EDGE_CURVE('',#58,#51,#41,.T.);
#68=EDGE_CURVE('',#57,#58,#42,.T.);
#69=EDGE_CURVE('',#57,#55,#33,.T.);
#70=EDGE_CURVE('',#56,#58,#34,.T.);
#71=ORIENTED_EDGE('',*,*,#59,.T.);
#72=ORIENTED_EDGE('',*,*,#60,.T.);
#73=ORIENTED_EDGE('',*,*,#61,.T.);
#74=ORIENTED_EDGE('',*,*,#62,.T.);
#75=ORIENTED_EDGE('',*,*,#63,.T.);
#76=ORIENTED_EDGE('',*,*,#64,.T.);
#77=ORIENTED_EDGE('',*,*,#65,.F.);
#78=ORIENTED_EDGE('',*,*,#61,.F.);
#79=ORIENTED_EDGE('',*,*,#66,.T.);
#80=ORIENTED_EDGE('',*,*,#59,.F.);
#81=ORIENTED_EDGE('',*,*,#67,.F.);
#82=ORIENTED_EDGE('',*,*,#68,.F.);
#83=ORIENTED_EDGE('',*,*,#69,.F.);
#84=ORIENTED_EDGE('',*,*,#68,.T.);
#85=ORIENTED_EDGE('',*,*,#70,.F.);
#86=ORIENTED_EDGE('',*,*,#64,.F.);
#87=ORIENTED_EDGE('',*,*,#69,.T.);
#88=ORIENTED_EDGE('',*,*,#63,.F.);
#89=ORIENTED_EDGE('',*,*,#60,.F.);
#90=ORIENTED_EDGE('',*,*,#66,.F.);
#91=ORIENTED_EDGE('',*,*,#70,.T.);
#92=ORIENTED_EDGE('',*,*,#67,.T.);
#93=ORIENTED_EDGE('',*,*,#62,.F.);
#94=ORIENTED_EDGE('',*,*,#65,.T.);
#95=CYLINDRICAL_SURFACE('',#117,19.);
#96=CYLINDRICAL_SURFACE('',#122,35.);
#97=ADVANCED_FACE('',(#19),#95,.F.);
#98=ADVANCED_FACE('',(#20),#15,.T.);
#99=ADVANCED_FACE('',(#21),#16,.T.);
#100=ADVANCED_FACE('',(#22),#96,.T.);
#101=ADVANCED_FACE('',(#23),#17,.T.);
#102=ADVANCED_FACE('',(#24),#18,.F.);
#103=CLOSED_SHELL('',(#97,#98,#99,#100,#101,#102));
#104=DERIVED_UNIT_ELEMENT(#106,1.);
#105=DERIVED_UNIT_ELEMENT(#189,-3.);
#106=(
MASS_UNIT()
NAMED_UNIT(*)
SI_UNIT(.KILO.,.GRAM.)
);
#107=DERIVED_UNIT((#104,#105));
#108=MEASURE_REPRESENTATION_ITEM('density measure',
POSITIVE_RATIO_MEASURE(7870.),#107);
#109=PROPERTY_DEFINITION_REPRESENTATION(#114,#111);
#110=PROPERTY_DEFINITION_REPRESENTATION(#115,#112);
#111=REPRESENTATION('material name',(#113),#186);
#112=REPRESENTATION('density',(#108),#186);
#113=DESCRIPTIVE_REPRESENTATION_ITEM('Acier AISI 1015',
'Acier AISI 1015');
#114=PROPERTY_DEFINITION('material property','material name',#196);
#115=PROPERTY_DEFINITION('material property','density of part',#196);
#116=AXIS2_PLACEMENT_3D('placement',#157,#127,#128);
#117=AXIS2_PLACEMENT_3D('',#158,#129,#130);
#118=AXIS2_PLACEMENT_3D('',#163,#132,#133);
#119=AXIS2_PLACEMENT_3D('',#166,#135,#136);
#120=AXIS2_PLACEMENT_3D('',#167,#137,#138);
#121=AXIS2_PLACEMENT_3D('',#173,#142,#143);
#122=AXIS2_PLACEMENT_3D('',#179,#147,#148);
#123=AXIS2_PLACEMENT_3D('',#180,#149,#150);
#124=AXIS2_PLACEMENT_3D('',#181,#151,#152);
#125=AXIS2_PLACEMENT_3D('',#182,#153,#154);
#126=AXIS2_PLACEMENT_3D('',#183,#155,#156);
#127=DIRECTION('axis',(0.,0.,1.));
#128=DIRECTION('refdir',(1.,0.,0.));
#129=DIRECTION('center_axis',(0.,1.,0.));
#130=DIRECTION('ref_axis',(1.,0.,0.));
#131=DIRECTION('',(0.,-1.,0.));
#132=DIRECTION('center_axis',(0.,-1.,0.));
#133=DIRECTION('ref_axis',(1.,0.,0.));
#134=DIRECTION('',(0.,1.,0.));
#135=DIRECTION('center_axis',(0.,1.,0.));
#136=DIRECTION('ref_axis',(1.,0.,0.));
#137=DIRECTION('center_axis',(-1.,0.,0.));
#138=DIRECTION('ref_axis',(0.,0.,1.));
#139=DIRECTION('',(0.,0.,1.));
#140=DIRECTION('',(0.,1.,0.));
#141=DIRECTION('',(0.,0.,1.));
#142=DIRECTION('center_axis',(-1.,0.,0.));
#143=DIRECTION('ref_axis',(0.,0.,1.));
#144=DIRECTION('',(0.,0.,1.));
#145=DIRECTION('',(0.,0.,1.));
#146=DIRECTION('',(0.,1.,0.));
#147=DIRECTION('center_axis',(0.,1.,0.));
#148=DIRECTION('ref_axis',(1.,0.,0.));
#149=DIRECTION('center_axis',(0.,-1.,0.));
#150=DIRECTION('ref_axis',(1.,0.,0.));
#151=DIRECTION('center_axis',(0.,1.,0.));
#152=DIRECTION('ref_axis',(1.,0.,0.));
#153=DIRECTION('center_axis',(0.,-1.,0.));
#154=DIRECTION('ref_axis',(1.,0.,0.));
#155=DIRECTION('center_axis',(0.,-1.,0.));
#156=DIRECTION('ref_axis',(1.,0.,0.));
#157=CARTESIAN_POINT('',(0.,0.,0.));
#158=CARTESIAN_POINT('Origin',(-240.,0.,2.13703398454653E-15));
#159=CARTESIAN_POINT('',(-240.,65.,-19.));
#160=CARTESIAN_POINT('',(-240.,60.,-19.));
#161=CARTESIAN_POINT('',(-240.,0.,-19.));
#162=CARTESIAN_POINT('',(-240.,60.,19.));
#163=CARTESIAN_POINT('Origin',(-240.,60.,2.13703398454653E-15));
#164=CARTESIAN_POINT('',(-240.,65.,19.));
#165=CARTESIAN_POINT('',(-240.,0.,19.));
#166=CARTESIAN_POINT('Origin',(-240.,65.,2.13703398454653E-15));
#167=CARTESIAN_POINT('Origin',(-240.,60.,19.));
#168=CARTESIAN_POINT('',(-240.,60.,35.));
#169=CARTESIAN_POINT('',(-240.,60.,-35.));
#170=CARTESIAN_POINT('',(-240.,65.,35.));
#171=CARTESIAN_POINT('',(-240.,60.,35.));
#172=CARTESIAN_POINT('',(-240.,65.,-35.));
#173=CARTESIAN_POINT('Origin',(-240.,60.,-35.));
#174=CARTESIAN_POINT('',(-240.,60.,-35.));
#175=CARTESIAN_POINT('',(-240.,60.,-35.));
#176=CARTESIAN_POINT('',(-240.,65.,-35.));
#177=CARTESIAN_POINT('',(-240.,65.,-35.));
#178=CARTESIAN_POINT('',(-240.,60.,-35.));
#179=CARTESIAN_POINT('Origin',(-240.,60.,2.13703398454653E-15));
#180=CARTESIAN_POINT('Origin',(-240.,60.,2.13703398454653E-15));
#181=CARTESIAN_POINT('Origin',(-240.,65.,2.13703398454653E-15));
#182=CARTESIAN_POINT('Origin',(-222.5,60.,0.));
#183=CARTESIAN_POINT('Origin',(-222.5,65.,0.));
#184=UNCERTAINTY_MEASURE_WITH_UNIT(LENGTH_MEASURE(0.01),#188,
'DISTANCE_ACCURACY_VALUE',
'Maximum model space distance between geometric entities at asserted c
onnectivities');
#185=UNCERTAINTY_MEASURE_WITH_UNIT(LENGTH_MEASURE(0.01),#188,
'DISTANCE_ACCURACY_VALUE',
'Maximum model space distance between geometric entities at asserted c
onnectivities');
#186=(
GEOMETRIC_REPRESENTATION_CONTEXT(3)
GLOBAL_UNCERTAINTY_ASSIGNED_CONTEXT((#184))
GLOBAL_UNIT_ASSIGNED_CONTEXT((#188,#190,#191))
REPRESENTATION_CONTEXT('','3D')
);
#187=(
GEOMETRIC_REPRESENTATION_CONTEXT(3)
GLOBAL_UNCERTAINTY_ASSIGNED_CONTEXT((#185))
GLOBAL_UNIT_ASSIGNED_CONTEXT((#188,#190,#191))
REPRESENTATION_CONTEXT('','3D')
);
#188=(
LENGTH_UNIT()
NAMED_UNIT(*)
SI_UNIT(.MILLI.,.METRE.)
);
#189=(
LENGTH_UNIT()
NAMED_UNIT(*)
SI_UNIT($,.METRE.)
);
#190=(
NAMED_UNIT(*)
PLANE_ANGLE_UNIT()
SI_UNIT($,.RADIAN.)
);
#191=(
NAMED_UNIT(*)
SI_UNIT($,.STERADIAN.)
SOLID_ANGLE_UNIT()
);
#192=SHAPE_DEFINITION_REPRESENTATION(#193,#194);
#193=PRODUCT_DEFINITION_SHAPE('',$,#196);
#194=SHAPE_REPRESENTATION('',(#116),#186);
#195=PRODUCT_DEFINITION_CONTEXT('part definition',#200,'design');
#196=PRODUCT_DEFINITION('FusionComponent','FusionComponent',#197,#195);
#197=PRODUCT_DEFINITION_FORMATION('',$,#202);
#198=PRODUCT_RELATED_PRODUCT_CATEGORY('FusionComponent',
'FusionComponent',(#202));
#199=APPLICATION_PROTOCOL_DEFINITION('international standard',
'automotive_design',2009,#200);
#200=APPLICATION_CONTEXT(
'Core Data for Automotive Mechanical Design Process');
#201=PRODUCT_CONTEXT('part definition',#200,'mechanical');
#202=PRODUCT('FusionComponent','FusionComponent',$,(#201));
#203=PRESENTATION_STYLE_ASSIGNMENT((#205));
#204=PRESENTATION_STYLE_ASSIGNMENT((#206));
#205=SURFACE_STYLE_USAGE(.BOTH.,#207);
#206=SURFACE_STYLE_USAGE(.BOTH.,#208);
#207=SURFACE_SIDE_STYLE('',(#209));
#208=SURFACE_SIDE_STYLE('',(#210));
#209=SURFACE_STYLE_FILL_AREA(#211);
#210=SURFACE_STYLE_FILL_AREA(#212);
#211=FILL_AREA_STYLE('Acier - Rugueux',(#213));
#212=FILL_AREA_STYLE('Acier - Satin\X\E9',(#214));
#213=FILL_AREA_STYLE_COLOUR('Acier - Rugueux',#215);
#214=FILL_AREA_STYLE_COLOUR('Acier - Satin\X\E9',#216);
#215=COLOUR_RGB('Acier - Rugueux',0.627450980392157,0.627450980392157,0.627450980392157);
#216=COLOUR_RGB('Acier - Satin\X\E9',0.627450980392157,0.627450980392157,
0.627450980392157);
ENDSEC;
END-ISO-10303-21;
