ISO-10303-21;
HEADER;
/* Generated by software containing ST-Developer
 * from STEP Tools, Inc. (www.steptools.com) 
 */

FILE_DESCRIPTION(
/* description */ (''),
/* implementation_level */ '2;1');

FILE_NAME(
/* name */ 
'C:/Users/Philippe/Desktop/MOBICO/Client/Deegle/Devis/Laser-final/Chas
sis-fix-douille-lateral.step.step',
/* time_stamp */ '2022-08-17T11:03:14+02:00',
/* author */ (''),
/* organization */ (''),
/* preprocessor_version */ 'ST-DEVELOPER v19',
/* originating_system */ 'Autodesk Translation Framework v11.7.0.108',
/* authorisation */ '');

FILE_SCHEMA (('AUTOMOTIVE_DESIGN { 1 0 10303 214 3 1 1 }'));
ENDSEC;

DATA;
#10=MECHANICAL_DESIGN_GEOMETRIC_PRESENTATION_REPRESENTATION('',(#13),#261);
#11=SHAPE_REPRESENTATION_RELATIONSHIP('SRR','None',#268,#12);
#12=ADVANCED_BREP_SHAPE_REPRESENTATION('',(#14),#260);
#13=STYLED_ITEM('',(#278),#14);
#14=MANIFOLD_SOLID_BREP('Corps1',#153);
#15=CYLINDRICAL_SURFACE('',#177,5.);
#16=CYLINDRICAL_SURFACE('',#178,5.);
#17=FACE_BOUND('',#36,.T.);
#18=FACE_BOUND('',#37,.T.);
#19=FACE_BOUND('',#40,.T.);
#20=FACE_BOUND('',#41,.T.);
#21=CIRCLE('',#170,5.);
#22=CIRCLE('',#171,5.);
#23=CIRCLE('',#174,5.);
#24=CIRCLE('',#175,5.);
#25=FACE_OUTER_BOUND('',#33,.T.);
#26=FACE_OUTER_BOUND('',#34,.T.);
#27=FACE_OUTER_BOUND('',#35,.T.);
#28=FACE_OUTER_BOUND('',#38,.T.);
#29=FACE_OUTER_BOUND('',#39,.T.);
#30=FACE_OUTER_BOUND('',#42,.T.);
#31=FACE_OUTER_BOUND('',#43,.T.);
#32=FACE_OUTER_BOUND('',#44,.T.);
#33=EDGE_LOOP('',(#103,#104,#105,#106));
#34=EDGE_LOOP('',(#107,#108,#109,#110));
#35=EDGE_LOOP('',(#111,#112,#113,#114));
#36=EDGE_LOOP('',(#115));
#37=EDGE_LOOP('',(#116));
#38=EDGE_LOOP('',(#117,#118,#119,#120));
#39=EDGE_LOOP('',(#121,#122,#123,#124));
#40=EDGE_LOOP('',(#125));
#41=EDGE_LOOP('',(#126));
#42=EDGE_LOOP('',(#127,#128,#129,#130));
#43=EDGE_LOOP('',(#131,#132,#133,#134));
#44=EDGE_LOOP('',(#135,#136,#137,#138));
#45=LINE('',#223,#59);
#46=LINE('',#225,#60);
#47=LINE('',#227,#61);
#48=LINE('',#228,#62);
#49=LINE('',#232,#63);
#50=LINE('',#234,#64);
#51=LINE('',#236,#65);
#52=LINE('',#237,#66);
#53=LINE('',#239,#67);
#54=LINE('',#240,#68);
#55=LINE('',#246,#69);
#56=LINE('',#248,#70);
#57=LINE('',#255,#71);
#58=LINE('',#257,#72);
#59=VECTOR('',#183,10.);
#60=VECTOR('',#184,10.);
#61=VECTOR('',#185,10.);
#62=VECTOR('',#186,10.);
#63=VECTOR('',#189,10.);
#64=VECTOR('',#190,10.);
#65=VECTOR('',#191,10.);
#66=VECTOR('',#192,10.);
#67=VECTOR('',#195,10.);
#68=VECTOR('',#196,10.);
#69=VECTOR('',#203,10.);
#70=VECTOR('',#206,10.);
#71=VECTOR('',#215,5.);
#72=VECTOR('',#218,5.);
#73=VERTEX_POINT('',#221);
#74=VERTEX_POINT('',#222);
#75=VERTEX_POINT('',#224);
#76=VERTEX_POINT('',#226);
#77=VERTEX_POINT('',#230);
#78=VERTEX_POINT('',#231);
#79=VERTEX_POINT('',#233);
#80=VERTEX_POINT('',#235);
#81=VERTEX_POINT('',#241);
#82=VERTEX_POINT('',#243);
#83=VERTEX_POINT('',#249);
#84=VERTEX_POINT('',#251);
#85=EDGE_CURVE('',#73,#74,#45,.T.);
#86=EDGE_CURVE('',#75,#73,#46,.T.);
#87=EDGE_CURVE('',#76,#75,#47,.T.);
#88=EDGE_CURVE('',#74,#76,#48,.T.);
#89=EDGE_CURVE('',#77,#78,#49,.T.);
#90=EDGE_CURVE('',#78,#79,#50,.T.);
#91=EDGE_CURVE('',#79,#80,#51,.T.);
#92=EDGE_CURVE('',#80,#77,#52,.T.);
#93=EDGE_CURVE('',#74,#78,#53,.T.);
#94=EDGE_CURVE('',#73,#77,#54,.T.);
#95=EDGE_CURVE('',#81,#81,#21,.T.);
#96=EDGE_CURVE('',#82,#82,#22,.T.);
#97=EDGE_CURVE('',#76,#79,#55,.T.);
#98=EDGE_CURVE('',#75,#80,#56,.T.);
#99=EDGE_CURVE('',#83,#83,#23,.T.);
#100=EDGE_CURVE('',#84,#84,#24,.T.);
#101=EDGE_CURVE('',#82,#84,#57,.T.);
#102=EDGE_CURVE('',#81,#83,#58,.T.);
#103=ORIENTED_EDGE('',*,*,#85,.F.);
#104=ORIENTED_EDGE('',*,*,#86,.F.);
#105=ORIENTED_EDGE('',*,*,#87,.F.);
#106=ORIENTED_EDGE('',*,*,#88,.F.);
#107=ORIENTED_EDGE('',*,*,#89,.T.);
#108=ORIENTED_EDGE('',*,*,#90,.T.);
#109=ORIENTED_EDGE('',*,*,#91,.T.);
#110=ORIENTED_EDGE('',*,*,#92,.T.);
#111=ORIENTED_EDGE('',*,*,#85,.T.);
#112=ORIENTED_EDGE('',*,*,#93,.T.);
#113=ORIENTED_EDGE('',*,*,#89,.F.);
#114=ORIENTED_EDGE('',*,*,#94,.F.);
#115=ORIENTED_EDGE('',*,*,#95,.T.);
#116=ORIENTED_EDGE('',*,*,#96,.T.);
#117=ORIENTED_EDGE('',*,*,#88,.T.);
#118=ORIENTED_EDGE('',*,*,#97,.T.);
#119=ORIENTED_EDGE('',*,*,#90,.F.);
#120=ORIENTED_EDGE('',*,*,#93,.F.);
#121=ORIENTED_EDGE('',*,*,#87,.T.);
#122=ORIENTED_EDGE('',*,*,#98,.T.);
#123=ORIENTED_EDGE('',*,*,#91,.F.);
#124=ORIENTED_EDGE('',*,*,#97,.F.);
#125=ORIENTED_EDGE('',*,*,#99,.T.);
#126=ORIENTED_EDGE('',*,*,#100,.T.);
#127=ORIENTED_EDGE('',*,*,#86,.T.);
#128=ORIENTED_EDGE('',*,*,#94,.T.);
#129=ORIENTED_EDGE('',*,*,#92,.F.);
#130=ORIENTED_EDGE('',*,*,#98,.F.);
#131=ORIENTED_EDGE('',*,*,#96,.F.);
#132=ORIENTED_EDGE('',*,*,#101,.T.);
#133=ORIENTED_EDGE('',*,*,#100,.F.);
#134=ORIENTED_EDGE('',*,*,#101,.F.);
#135=ORIENTED_EDGE('',*,*,#95,.F.);
#136=ORIENTED_EDGE('',*,*,#102,.T.);
#137=ORIENTED_EDGE('',*,*,#99,.F.);
#138=ORIENTED_EDGE('',*,*,#102,.F.);
#139=PLANE('',#167);
#140=PLANE('',#168);
#141=PLANE('',#169);
#142=PLANE('',#172);
#143=PLANE('',#173);
#144=PLANE('',#176);
#145=ADVANCED_FACE('',(#25),#139,.T.);
#146=ADVANCED_FACE('',(#26),#140,.T.);
#147=ADVANCED_FACE('',(#27,#17,#18),#141,.T.);
#148=ADVANCED_FACE('',(#28),#142,.T.);
#149=ADVANCED_FACE('',(#29,#19,#20),#143,.T.);
#150=ADVANCED_FACE('',(#30),#144,.T.);
#151=ADVANCED_FACE('',(#31),#15,.F.);
#152=ADVANCED_FACE('',(#32),#16,.F.);
#153=CLOSED_SHELL('',(#145,#146,#147,#148,#149,#150,#151,#152));
#154=DERIVED_UNIT_ELEMENT(#156,1.);
#155=DERIVED_UNIT_ELEMENT(#263,-3.);
#156=(
MASS_UNIT()
NAMED_UNIT(*)
SI_UNIT(.KILO.,.GRAM.)
);
#157=DERIVED_UNIT((#154,#155));
#158=MEASURE_REPRESENTATION_ITEM('density measure',
POSITIVE_RATIO_MEASURE(7870.),#157);
#159=PROPERTY_DEFINITION_REPRESENTATION(#164,#161);
#160=PROPERTY_DEFINITION_REPRESENTATION(#165,#162);
#161=REPRESENTATION('material name',(#163),#260);
#162=REPRESENTATION('density',(#158),#260);
#163=DESCRIPTIVE_REPRESENTATION_ITEM('Acier AISI 1015',
'Acier AISI 1015');
#164=PROPERTY_DEFINITION('material property','material name',#270);
#165=PROPERTY_DEFINITION('material property','density of part',#270);
#166=AXIS2_PLACEMENT_3D('placement',#219,#179,#180);
#167=AXIS2_PLACEMENT_3D('',#220,#181,#182);
#168=AXIS2_PLACEMENT_3D('',#229,#187,#188);
#169=AXIS2_PLACEMENT_3D('',#238,#193,#194);
#170=AXIS2_PLACEMENT_3D('',#242,#197,#198);
#171=AXIS2_PLACEMENT_3D('',#244,#199,#200);
#172=AXIS2_PLACEMENT_3D('',#245,#201,#202);
#173=AXIS2_PLACEMENT_3D('',#247,#204,#205);
#174=AXIS2_PLACEMENT_3D('',#250,#207,#208);
#175=AXIS2_PLACEMENT_3D('',#252,#209,#210);
#176=AXIS2_PLACEMENT_3D('',#253,#211,#212);
#177=AXIS2_PLACEMENT_3D('',#254,#213,#214);
#178=AXIS2_PLACEMENT_3D('',#256,#216,#217);
#179=DIRECTION('axis',(0.,0.,1.));
#180=DIRECTION('refdir',(1.,0.,0.));
#181=DIRECTION('center_axis',(0.,-1.,0.));
#182=DIRECTION('ref_axis',(0.,0.,-1.));
#183=DIRECTION('',(0.,0.,1.));
#184=DIRECTION('',(-1.,0.,0.));
#185=DIRECTION('',(0.,0.,-1.));
#186=DIRECTION('',(1.,0.,0.));
#187=DIRECTION('center_axis',(0.,1.,0.));
#188=DIRECTION('ref_axis',(0.,0.,1.));
#189=DIRECTION('',(0.,0.,1.));
#190=DIRECTION('',(1.,0.,0.));
#191=DIRECTION('',(0.,0.,-1.));
#192=DIRECTION('',(-1.,0.,0.));
#193=DIRECTION('center_axis',(-1.,0.,0.));
#194=DIRECTION('ref_axis',(0.,0.,1.));
#195=DIRECTION('',(0.,1.,0.));
#196=DIRECTION('',(0.,1.,0.));
#197=DIRECTION('center_axis',(1.,0.,0.));
#198=DIRECTION('ref_axis',(0.,-1.,0.));
#199=DIRECTION('center_axis',(1.,0.,0.));
#200=DIRECTION('ref_axis',(0.,-1.,0.));
#201=DIRECTION('center_axis',(0.,0.,1.));
#202=DIRECTION('ref_axis',(1.,0.,0.));
#203=DIRECTION('',(0.,1.,0.));
#204=DIRECTION('center_axis',(1.,0.,0.));
#205=DIRECTION('ref_axis',(0.,0.,-1.));
#206=DIRECTION('',(0.,1.,0.));
#207=DIRECTION('center_axis',(-1.,0.,0.));
#208=DIRECTION('ref_axis',(0.,-1.,0.));
#209=DIRECTION('center_axis',(-1.,0.,0.));
#210=DIRECTION('ref_axis',(0.,-1.,0.));
#211=DIRECTION('center_axis',(0.,0.,-1.));
#212=DIRECTION('ref_axis',(-1.,0.,0.));
#213=DIRECTION('center_axis',(1.,0.,0.));
#214=DIRECTION('ref_axis',(0.,-1.,0.));
#215=DIRECTION('',(1.,0.,0.));
#216=DIRECTION('center_axis',(1.,0.,0.));
#217=DIRECTION('ref_axis',(0.,-1.,0.));
#218=DIRECTION('',(1.,0.,0.));
#219=CARTESIAN_POINT('',(0.,0.,0.));
#220=CARTESIAN_POINT('Origin',(-242.5,87.5,0.));
#221=CARTESIAN_POINT('',(-245.,87.5,19.));
#222=CARTESIAN_POINT('',(-245.,87.5,80.));
#223=CARTESIAN_POINT('',(-245.,87.5,9.49999999999999));
#224=CARTESIAN_POINT('',(-240.,87.5,19.));
#225=CARTESIAN_POINT('',(-241.25,87.5,19.));
#226=CARTESIAN_POINT('',(-240.,87.5,80.));
#227=CARTESIAN_POINT('',(-240.,87.5,40.));
#228=CARTESIAN_POINT('',(-243.75,87.5,80.));
#229=CARTESIAN_POINT('Origin',(-242.5,112.5,0.));
#230=CARTESIAN_POINT('',(-245.,112.5,19.));
#231=CARTESIAN_POINT('',(-245.,112.5,80.));
#232=CARTESIAN_POINT('',(-245.,112.5,9.49999999999999));
#233=CARTESIAN_POINT('',(-240.,112.5,80.));
#234=CARTESIAN_POINT('',(-243.75,112.5,80.));
#235=CARTESIAN_POINT('',(-240.,112.5,19.));
#236=CARTESIAN_POINT('',(-240.,112.5,40.));
#237=CARTESIAN_POINT('',(-241.25,112.5,19.));
#238=CARTESIAN_POINT('Origin',(-245.,87.5,19.));
#239=CARTESIAN_POINT('',(-245.,87.5,80.));
#240=CARTESIAN_POINT('',(-245.,87.5,19.));
#241=CARTESIAN_POINT('',(-245.,105.,30.));
#242=CARTESIAN_POINT('Origin',(-245.,100.,30.));
#243=CARTESIAN_POINT('',(-245.,105.,70.));
#244=CARTESIAN_POINT('Origin',(-245.,100.,70.));
#245=CARTESIAN_POINT('Origin',(-245.,87.5,80.));
#246=CARTESIAN_POINT('',(-240.,87.5,80.));
#247=CARTESIAN_POINT('Origin',(-240.,87.5,80.));
#248=CARTESIAN_POINT('',(-240.,0.,19.));
#249=CARTESIAN_POINT('',(-240.,105.,30.));
#250=CARTESIAN_POINT('Origin',(-240.,100.,30.));
#251=CARTESIAN_POINT('',(-240.,105.,70.));
#252=CARTESIAN_POINT('Origin',(-240.,100.,70.));
#253=CARTESIAN_POINT('Origin',(-240.,87.5,19.));
#254=CARTESIAN_POINT('Origin',(-245.,100.,70.));
#255=CARTESIAN_POINT('',(-245.,105.,70.));
#256=CARTESIAN_POINT('Origin',(-245.,100.,30.));
#257=CARTESIAN_POINT('',(-245.,105.,30.));
#258=UNCERTAINTY_MEASURE_WITH_UNIT(LENGTH_MEASURE(0.01),#262,
'DISTANCE_ACCURACY_VALUE',
'Maximum model space distance between geometric entities at asserted c
onnectivities');
#259=UNCERTAINTY_MEASURE_WITH_UNIT(LENGTH_MEASURE(0.01),#262,
'DISTANCE_ACCURACY_VALUE',
'Maximum model space distance between geometric entities at asserted c
onnectivities');
#260=(
GEOMETRIC_REPRESENTATION_CONTEXT(3)
GLOBAL_UNCERTAINTY_ASSIGNED_CONTEXT((#258))
GLOBAL_UNIT_ASSIGNED_CONTEXT((#262,#264,#265))
REPRESENTATION_CONTEXT('','3D')
);
#261=(
GEOMETRIC_REPRESENTATION_CONTEXT(3)
GLOBAL_UNCERTAINTY_ASSIGNED_CONTEXT((#259))
GLOBAL_UNIT_ASSIGNED_CONTEXT((#262,#264,#265))
REPRESENTATION_CONTEXT('','3D')
);
#262=(
LENGTH_UNIT()
NAMED_UNIT(*)
SI_UNIT(.MILLI.,.METRE.)
);
#263=(
LENGTH_UNIT()
NAMED_UNIT(*)
SI_UNIT($,.METRE.)
);
#264=(
NAMED_UNIT(*)
PLANE_ANGLE_UNIT()
SI_UNIT($,.RADIAN.)
);
#265=(
NAMED_UNIT(*)
SI_UNIT($,.STERADIAN.)
SOLID_ANGLE_UNIT()
);
#266=SHAPE_DEFINITION_REPRESENTATION(#267,#268);
#267=PRODUCT_DEFINITION_SHAPE('',$,#270);
#268=SHAPE_REPRESENTATION('',(#166),#260);
#269=PRODUCT_DEFINITION_CONTEXT('part definition',#274,'design');
#270=PRODUCT_DEFINITION('FusionComponent','FusionComponent',#271,#269);
#271=PRODUCT_DEFINITION_FORMATION('',$,#276);
#272=PRODUCT_RELATED_PRODUCT_CATEGORY('FusionComponent',
'FusionComponent',(#276));
#273=APPLICATION_PROTOCOL_DEFINITION('international standard',
'automotive_design',2009,#274);
#274=APPLICATION_CONTEXT(
'Core Data for Automotive Mechanical Design Process');
#275=PRODUCT_CONTEXT('part definition',#274,'mechanical');
#276=PRODUCT('FusionComponent','FusionComponent',$,(#275));
#277=PRESENTATION_STYLE_ASSIGNMENT((#279));
#278=PRESENTATION_STYLE_ASSIGNMENT((#280));
#279=SURFACE_STYLE_USAGE(.BOTH.,#281);
#280=SURFACE_STYLE_USAGE(.BOTH.,#282);
#281=SURFACE_SIDE_STYLE('',(#283));
#282=SURFACE_SIDE_STYLE('',(#284));
#283=SURFACE_STYLE_FILL_AREA(#285);
#284=SURFACE_STYLE_FILL_AREA(#286);
#285=FILL_AREA_STYLE('Acier - Rugueux',(#287));
#286=FILL_AREA_STYLE('Acier - Satin\X\E9',(#288));
#287=FILL_AREA_STYLE_COLOUR('Acier - Rugueux',#289);
#288=FILL_AREA_STYLE_COLOUR('Acier - Satin\X\E9',#290);
#289=COLOUR_RGB('Acier - Rugueux',0.627450980392157,0.627450980392157,0.627450980392157);
#290=COLOUR_RGB('Acier - Satin\X\E9',0.627450980392157,0.627450980392157,
0.627450980392157);
ENDSEC;
END-ISO-10303-21;
