ISO-10303-21;
HEADER;
/* Generated by software containing ST-Developer
 * from STEP Tools, Inc. (www.steptools.com) 
 */

FILE_DESCRIPTION(
/* description */ (''),
/* implementation_level */ '2;1');

FILE_NAME(
/* name */ 
'D:/Users/Documents/bricolage/Kubota T720/vrais fichiers/goupille moto
culteur sans maillon.step',
/* time_stamp */ '2022-03-30T20:05:31+02:00',
/* author */ (''),
/* organization */ (''),
/* preprocessor_version */ 'ST-DEVELOPER v18.1',
/* originating_system */ 'Autodesk Translation Framework v10.10.0.1391',

/* authorisation */ '');

FILE_SCHEMA (('AUTOMOTIVE_DESIGN { 1 0 10303 214 3 1 1 }'));
ENDSEC;

DATA;
#10=MECHANICAL_DESIGN_GEOMETRIC_PRESENTATION_REPRESENTATION('',(#13),#255);
#11=SHAPE_REPRESENTATION_RELATIONSHIP('SRR','None',#262,#12);
#12=ADVANCED_BREP_SHAPE_REPRESENTATION('',(#14),#254);
#13=STYLED_ITEM('',(#271),#14);
#14=MANIFOLD_SOLID_BREP('Corps1',#104);
#15=CONICAL_SURFACE('',#125,6.86213394580209,0.349065850398866);
#16=B_SPLINE_CURVE_WITH_KNOTS('',3,(#173,#174,#175,#176,#177,#178,#179,
#180,#181,#182,#183,#184,#185,#186,#187,#188,#189,#190,#191,#192,#193,#194,
#195,#196,#197,#198,#199,#200,#201,#202,#203,#204,#205,#206),
 .UNSPECIFIED.,.T.,.F.,(4,2,2,2,2,2,2,2,2,2,2,2,2,2,2,2,4),(0.,0.0947924842095064,
0.189584968419013,0.284351454675471,0.379117940931929,0.473884427188388,
0.568650913444846,0.663443397654352,0.758235881863859,0.853028366073365,
0.947820850282872,1.04258733653933,1.13735382279579,1.23212030905225,1.3268867953087,
1.42167927951821,1.51647176372772),.UNSPECIFIED.);
#17=B_SPLINE_CURVE_WITH_KNOTS('',3,(#209,#210,#211,#212,#213,#214,#215,
#216,#217,#218,#219,#220,#221,#222,#223,#224,#225,#226,#227,#228,#229,#230,
#231,#232,#233,#234,#235,#236,#237,#238,#239,#240,#241,#242),
 .UNSPECIFIED.,.T.,.F.,(4,2,2,2,2,2,2,2,2,2,2,2,2,2,2,2,4),(0.,0.0947924842095066,
0.189584968419013,0.284351454675471,0.37911794093193,0.473884427188388,
0.568650913444846,0.663443397654352,0.758235881863859,0.853028366073365,
0.947820850282872,1.04258733653933,1.13735382279579,1.23212030905225,1.3268867953087,
1.42167927951821,1.51647176372772),.UNSPECIFIED.);
#18=LINE('',#169,#22);
#19=LINE('',#208,#23);
#20=LINE('',#247,#24);
#21=LINE('',#250,#25);
#22=VECTOR('',#142,10.);
#23=VECTOR('',#147,2.5);
#24=VECTOR('',#152,6.86213394580209);
#25=VECTOR('',#157,8.5);
#26=CYLINDRICAL_SURFACE('',#121,10.);
#27=CYLINDRICAL_SURFACE('',#124,2.5);
#28=CYLINDRICAL_SURFACE('',#128,8.5);
#29=FACE_BOUND('',#40,.T.);
#30=FACE_BOUND('',#46,.T.);
#31=FACE_BOUND('',#47,.T.);
#32=FACE_OUTER_BOUND('',#39,.T.);
#33=FACE_OUTER_BOUND('',#41,.T.);
#34=FACE_OUTER_BOUND('',#42,.T.);
#35=FACE_OUTER_BOUND('',#43,.T.);
#36=FACE_OUTER_BOUND('',#44,.T.);
#37=FACE_OUTER_BOUND('',#45,.T.);
#38=FACE_OUTER_BOUND('',#48,.T.);
#39=EDGE_LOOP('',(#72));
#40=EDGE_LOOP('',(#73));
#41=EDGE_LOOP('',(#74,#75,#76,#77));
#42=EDGE_LOOP('',(#78));
#43=EDGE_LOOP('',(#79,#80,#81,#82));
#44=EDGE_LOOP('',(#83,#84,#85,#86));
#45=EDGE_LOOP('',(#87,#88,#89,#90));
#46=EDGE_LOOP('',(#91));
#47=EDGE_LOOP('',(#92));
#48=EDGE_LOOP('',(#93));
#49=CIRCLE('',#119,10.);
#50=CIRCLE('',#120,8.5);
#51=CIRCLE('',#122,10.);
#52=CIRCLE('',#126,8.5);
#53=CIRCLE('',#127,5.22426789160418);
#54=VERTEX_POINT('',#162);
#55=VERTEX_POINT('',#164);
#56=VERTEX_POINT('',#167);
#57=VERTEX_POINT('',#172);
#58=VERTEX_POINT('',#207);
#59=VERTEX_POINT('',#244);
#60=VERTEX_POINT('',#246);
#61=EDGE_CURVE('',#54,#54,#49,.T.);
#62=EDGE_CURVE('',#55,#55,#50,.T.);
#63=EDGE_CURVE('',#56,#56,#51,.T.);
#64=EDGE_CURVE('',#56,#54,#18,.T.);
#65=EDGE_CURVE('',#57,#57,#16,.T.);
#66=EDGE_CURVE('',#57,#58,#19,.T.);
#67=EDGE_CURVE('',#58,#58,#17,.T.);
#68=EDGE_CURVE('',#59,#59,#52,.T.);
#69=EDGE_CURVE('',#59,#60,#20,.T.);
#70=EDGE_CURVE('',#60,#60,#53,.T.);
#71=EDGE_CURVE('',#55,#59,#21,.T.);
#72=ORIENTED_EDGE('',*,*,#61,.F.);
#73=ORIENTED_EDGE('',*,*,#62,.F.);
#74=ORIENTED_EDGE('',*,*,#63,.F.);
#75=ORIENTED_EDGE('',*,*,#64,.T.);
#76=ORIENTED_EDGE('',*,*,#61,.T.);
#77=ORIENTED_EDGE('',*,*,#64,.F.);
#78=ORIENTED_EDGE('',*,*,#63,.T.);
#79=ORIENTED_EDGE('',*,*,#65,.F.);
#80=ORIENTED_EDGE('',*,*,#66,.T.);
#81=ORIENTED_EDGE('',*,*,#67,.F.);
#82=ORIENTED_EDGE('',*,*,#66,.F.);
#83=ORIENTED_EDGE('',*,*,#68,.T.);
#84=ORIENTED_EDGE('',*,*,#69,.T.);
#85=ORIENTED_EDGE('',*,*,#70,.T.);
#86=ORIENTED_EDGE('',*,*,#69,.F.);
#87=ORIENTED_EDGE('',*,*,#62,.T.);
#88=ORIENTED_EDGE('',*,*,#71,.T.);
#89=ORIENTED_EDGE('',*,*,#68,.F.);
#90=ORIENTED_EDGE('',*,*,#71,.F.);
#91=ORIENTED_EDGE('',*,*,#67,.T.);
#92=ORIENTED_EDGE('',*,*,#65,.T.);
#93=ORIENTED_EDGE('',*,*,#70,.F.);
#94=PLANE('',#118);
#95=PLANE('',#123);
#96=PLANE('',#129);
#97=ADVANCED_FACE('',(#32,#29),#94,.F.);
#98=ADVANCED_FACE('',(#33),#26,.T.);
#99=ADVANCED_FACE('',(#34),#95,.T.);
#100=ADVANCED_FACE('',(#35),#27,.F.);
#101=ADVANCED_FACE('',(#36),#15,.T.);
#102=ADVANCED_FACE('',(#37,#30,#31),#28,.T.);
#103=ADVANCED_FACE('',(#38),#96,.F.);
#104=CLOSED_SHELL('',(#97,#98,#99,#100,#101,#102,#103));
#105=DERIVED_UNIT_ELEMENT(#107,1.);
#106=DERIVED_UNIT_ELEMENT(#257,-3.);
#107=(
MASS_UNIT()
NAMED_UNIT(*)
SI_UNIT(.KILO.,.GRAM.)
);
#108=DERIVED_UNIT((#105,#106));
#109=MEASURE_REPRESENTATION_ITEM('density measure',
POSITIVE_RATIO_MEASURE(7850.),#108);
#110=PROPERTY_DEFINITION_REPRESENTATION(#115,#112);
#111=PROPERTY_DEFINITION_REPRESENTATION(#116,#113);
#112=REPRESENTATION('material name',(#114),#254);
#113=REPRESENTATION('density',(#109),#254);
#114=DESCRIPTIVE_REPRESENTATION_ITEM('Acier','Acier');
#115=PROPERTY_DEFINITION('material property','material name',#264);
#116=PROPERTY_DEFINITION('material property','density of part',#264);
#117=AXIS2_PLACEMENT_3D('placement',#160,#130,#131);
#118=AXIS2_PLACEMENT_3D('',#161,#132,#133);
#119=AXIS2_PLACEMENT_3D('',#163,#134,#135);
#120=AXIS2_PLACEMENT_3D('',#165,#136,#137);
#121=AXIS2_PLACEMENT_3D('',#166,#138,#139);
#122=AXIS2_PLACEMENT_3D('',#168,#140,#141);
#123=AXIS2_PLACEMENT_3D('',#170,#143,#144);
#124=AXIS2_PLACEMENT_3D('',#171,#145,#146);
#125=AXIS2_PLACEMENT_3D('',#243,#148,#149);
#126=AXIS2_PLACEMENT_3D('',#245,#150,#151);
#127=AXIS2_PLACEMENT_3D('',#248,#153,#154);
#128=AXIS2_PLACEMENT_3D('',#249,#155,#156);
#129=AXIS2_PLACEMENT_3D('',#251,#158,#159);
#130=DIRECTION('axis',(0.,0.,1.));
#131=DIRECTION('refdir',(1.,0.,0.));
#132=DIRECTION('center_axis',(0.,0.,1.));
#133=DIRECTION('ref_axis',(-1.,0.,0.));
#134=DIRECTION('center_axis',(0.,0.,1.));
#135=DIRECTION('ref_axis',(-1.,0.,0.));
#136=DIRECTION('center_axis',(0.,0.,-1.));
#137=DIRECTION('ref_axis',(1.,0.,0.));
#138=DIRECTION('center_axis',(0.,0.,1.));
#139=DIRECTION('ref_axis',(-1.,0.,0.));
#140=DIRECTION('center_axis',(0.,0.,1.));
#141=DIRECTION('ref_axis',(-1.,0.,0.));
#142=DIRECTION('',(0.,0.,-1.));
#143=DIRECTION('center_axis',(0.,0.,1.));
#144=DIRECTION('ref_axis',(-1.,0.,0.));
#145=DIRECTION('center_axis',(0.,1.,0.));
#146=DIRECTION('ref_axis',(1.,0.,0.));
#147=DIRECTION('',(0.,1.,0.));
#148=DIRECTION('center_axis',(0.,0.,1.));
#149=DIRECTION('ref_axis',(1.,0.,0.));
#150=DIRECTION('center_axis',(0.,0.,-1.));
#151=DIRECTION('ref_axis',(1.,0.,0.));
#152=DIRECTION('',(0.342020143325669,4.18853873767699E-17,-0.939692620785908));
#153=DIRECTION('center_axis',(0.,0.,1.));
#154=DIRECTION('ref_axis',(1.,0.,0.));
#155=DIRECTION('center_axis',(0.,0.,1.));
#156=DIRECTION('ref_axis',(1.,0.,0.));
#157=DIRECTION('',(0.,0.,-1.));
#158=DIRECTION('center_axis',(0.,0.,1.));
#159=DIRECTION('ref_axis',(1.,0.,0.));
#160=CARTESIAN_POINT('',(0.,0.,0.));
#161=CARTESIAN_POINT('Origin',(0.,0.,137.));
#162=CARTESIAN_POINT('',(10.,1.22464679914735E-15,137.));
#163=CARTESIAN_POINT('Origin',(0.,0.,137.));
#164=CARTESIAN_POINT('',(-8.5,-1.04094977927525E-15,137.));
#165=CARTESIAN_POINT('Origin',(0.,0.,137.));
#166=CARTESIAN_POINT('Origin',(0.,0.,137.));
#167=CARTESIAN_POINT('',(10.,1.22464679914735E-15,139.));
#168=CARTESIAN_POINT('Origin',(0.,0.,139.));
#169=CARTESIAN_POINT('',(10.,1.22464679914735E-15,137.));
#170=CARTESIAN_POINT('Origin',(0.,0.,139.));
#171=CARTESIAN_POINT('Origin',(0.,0.,15.0000002235174));
#172=CARTESIAN_POINT('',(-2.5,-8.12403840463596,15.0000002235174));
#173=CARTESIAN_POINT('Ctrl Pts',(-2.5,-8.12403840463596,15.0000002235174));
#174=CARTESIAN_POINT('Ctrl Pts',(-2.5,-8.12403840463596,15.3159751708824));
#175=CARTESIAN_POINT('Ctrl Pts',(-2.43646806724567,-8.14440112773713,15.6516340332748));
#176=CARTESIAN_POINT('Ctrl Pts',(-2.18077822636656,-8.21655962229618,16.2669692033247));
#177=CARTESIAN_POINT('Ctrl Pts',(-1.98871181838665,-8.26716691722237,16.5468223110635));
#178=CARTESIAN_POINT('Ctrl Pts',(-1.54688268427256,-8.3611093469189,16.9886514451776));
#179=CARTESIAN_POINT('Ctrl Pts',(-1.26700487427276,-8.41074355290383,17.1807648199676));
#180=CARTESIAN_POINT('Ctrl Pts',(-0.651580195997889,-8.48064571287697,17.4364892835318));
#181=CARTESIAN_POINT('Ctrl Pts',(-0.315888287521528,-8.5,17.5000002235174));
#182=CARTESIAN_POINT('Ctrl Pts',(0.315888287521527,-8.5,17.5000002235174));
#183=CARTESIAN_POINT('Ctrl Pts',(0.651580195997885,-8.48064571287697,17.4364892835318));
#184=CARTESIAN_POINT('Ctrl Pts',(1.26700487427276,-8.41074355290383,17.1807648199676));
#185=CARTESIAN_POINT('Ctrl Pts',(1.54688268427256,-8.3611093469189,16.9886514451776));
#186=CARTESIAN_POINT('Ctrl Pts',(1.98871181838665,-8.26716691722237,16.5468223110635));
#187=CARTESIAN_POINT('Ctrl Pts',(2.18077822636656,-8.21655962229618,16.2669692033247));
#188=CARTESIAN_POINT('Ctrl Pts',(2.43646806724567,-8.14440112773713,15.6516340332748));
#189=CARTESIAN_POINT('Ctrl Pts',(2.5,-8.12403840463596,15.3159751708824));
#190=CARTESIAN_POINT('Ctrl Pts',(2.5,-8.12403840463596,14.6840252761524));
#191=CARTESIAN_POINT('Ctrl Pts',(2.43646806724567,-8.14440112773713,14.34836641376));
#192=CARTESIAN_POINT('Ctrl Pts',(2.18077822636656,-8.21655962229618,13.7330312437101));
#193=CARTESIAN_POINT('Ctrl Pts',(1.98871181838665,-8.26716691722237,13.4531781359713));
#194=CARTESIAN_POINT('Ctrl Pts',(1.54688268427256,-8.3611093469189,13.0113490018572));
#195=CARTESIAN_POINT('Ctrl Pts',(1.26700487427276,-8.41074355290383,12.8192356270673));
#196=CARTESIAN_POINT('Ctrl Pts',(0.651580195997889,-8.48064571287697,12.5635111635031));
#197=CARTESIAN_POINT('Ctrl Pts',(0.315888287521529,-8.5,12.5000002235174));
#198=CARTESIAN_POINT('Ctrl Pts',(-0.315888287521527,-8.5,12.5000002235174));
#199=CARTESIAN_POINT('Ctrl Pts',(-0.651580195997888,-8.48064571287697,12.5635111635031));
#200=CARTESIAN_POINT('Ctrl Pts',(-1.26700487427276,-8.41074355290383,12.8192356270673));
#201=CARTESIAN_POINT('Ctrl Pts',(-1.54688268427256,-8.3611093469189,13.0113490018572));
#202=CARTESIAN_POINT('Ctrl Pts',(-1.98871181838665,-8.26716691722237,13.4531781359713));
#203=CARTESIAN_POINT('Ctrl Pts',(-2.18077822636656,-8.21655962229618,13.7330312437101));
#204=CARTESIAN_POINT('Ctrl Pts',(-2.43646806724567,-8.14440112773713,14.34836641376));
#205=CARTESIAN_POINT('Ctrl Pts',(-2.5,-8.12403840463596,14.6840252761524));
#206=CARTESIAN_POINT('Ctrl Pts',(-2.5,-8.12403840463596,15.0000002235174));
#207=CARTESIAN_POINT('',(-2.5,8.12403840463596,15.0000002235174));
#208=CARTESIAN_POINT('',(-2.5,0.,15.0000002235174));
#209=CARTESIAN_POINT('Ctrl Pts',(-2.5,8.12403840463596,15.0000002235174));
#210=CARTESIAN_POINT('Ctrl Pts',(-2.5,8.12403840463596,14.6840252761524));
#211=CARTESIAN_POINT('Ctrl Pts',(-2.43646806724567,8.14440112773713,14.34836641376));
#212=CARTESIAN_POINT('Ctrl Pts',(-2.18077822636656,8.21655962229618,13.7330312437101));
#213=CARTESIAN_POINT('Ctrl Pts',(-1.98871181838665,8.26716691722237,13.4531781359713));
#214=CARTESIAN_POINT('Ctrl Pts',(-1.54688268427256,8.3611093469189,13.0113490018572));
#215=CARTESIAN_POINT('Ctrl Pts',(-1.26700487427276,8.41074355290383,12.8192356270673));
#216=CARTESIAN_POINT('Ctrl Pts',(-0.651580195997887,8.48064571287697,12.5635111635031));
#217=CARTESIAN_POINT('Ctrl Pts',(-0.315888287521527,8.5,12.5000002235174));
#218=CARTESIAN_POINT('Ctrl Pts',(0.315888287521528,8.5,12.5000002235174));
#219=CARTESIAN_POINT('Ctrl Pts',(0.651580195997889,8.48064571287697,12.5635111635031));
#220=CARTESIAN_POINT('Ctrl Pts',(1.26700487427276,8.41074355290383,12.8192356270673));
#221=CARTESIAN_POINT('Ctrl Pts',(1.54688268427256,8.3611093469189,13.0113490018572));
#222=CARTESIAN_POINT('Ctrl Pts',(1.98871181838665,8.26716691722237,13.4531781359713));
#223=CARTESIAN_POINT('Ctrl Pts',(2.18077822636656,8.21655962229618,13.7330312437101));
#224=CARTESIAN_POINT('Ctrl Pts',(2.43646806724567,8.14440112773713,14.34836641376));
#225=CARTESIAN_POINT('Ctrl Pts',(2.5,8.12403840463596,14.6840252761524));
#226=CARTESIAN_POINT('Ctrl Pts',(2.5,8.12403840463596,15.3159751708824));
#227=CARTESIAN_POINT('Ctrl Pts',(2.43646806724567,8.14440112773713,15.6516340332748));
#228=CARTESIAN_POINT('Ctrl Pts',(2.18077822636656,8.21655962229618,16.2669692033247));
#229=CARTESIAN_POINT('Ctrl Pts',(1.98871181838665,8.26716691722237,16.5468223110635));
#230=CARTESIAN_POINT('Ctrl Pts',(1.54688268427256,8.3611093469189,16.9886514451776));
#231=CARTESIAN_POINT('Ctrl Pts',(1.26700487427276,8.41074355290383,17.1807648199676));
#232=CARTESIAN_POINT('Ctrl Pts',(0.651580195997888,8.48064571287697,17.4364892835318));
#233=CARTESIAN_POINT('Ctrl Pts',(0.315888287521527,8.5,17.5000002235174));
#234=CARTESIAN_POINT('Ctrl Pts',(-0.315888287521528,8.5,17.5000002235174));
#235=CARTESIAN_POINT('Ctrl Pts',(-0.651580195997889,8.48064571287697,17.4364892835318));
#236=CARTESIAN_POINT('Ctrl Pts',(-1.26700487427276,8.41074355290383,17.1807648199676));
#237=CARTESIAN_POINT('Ctrl Pts',(-1.54688268427256,8.3611093469189,16.9886514451776));
#238=CARTESIAN_POINT('Ctrl Pts',(-1.98871181838665,8.26716691722237,16.5468223110635));
#239=CARTESIAN_POINT('Ctrl Pts',(-2.18077822636656,8.21655962229618,16.2669692033247));
#240=CARTESIAN_POINT('Ctrl Pts',(-2.43646806724567,8.14440112773713,15.6516340332748));
#241=CARTESIAN_POINT('Ctrl Pts',(-2.5,8.12403840463596,15.3159751708824));
#242=CARTESIAN_POINT('Ctrl Pts',(-2.5,8.12403840463596,15.0000002235174));
#243=CARTESIAN_POINT('Origin',(0.,0.,4.5));
#244=CARTESIAN_POINT('',(-8.5,1.04094977927525E-15,9.));
#245=CARTESIAN_POINT('Origin',(0.,0.,9.));
#246=CARTESIAN_POINT('',(-5.22426789160418,-6.39788295134135E-16,0.));
#247=CARTESIAN_POINT('',(-6.86213394580209,-8.40369037204693E-16,4.5));
#248=CARTESIAN_POINT('Origin',(0.,0.,0.));
#249=CARTESIAN_POINT('Origin',(0.,0.,0.));
#250=CARTESIAN_POINT('',(-8.5,-1.04094977927525E-15,0.));
#251=CARTESIAN_POINT('Origin',(0.,0.,0.));
#252=UNCERTAINTY_MEASURE_WITH_UNIT(LENGTH_MEASURE(0.01),#256,
'DISTANCE_ACCURACY_VALUE',
'Maximum model space distance between geometric entities at asserted c
onnectivities');
#253=UNCERTAINTY_MEASURE_WITH_UNIT(LENGTH_MEASURE(0.01),#256,
'DISTANCE_ACCURACY_VALUE',
'Maximum model space distance between geometric entities at asserted c
onnectivities');
#254=(
GEOMETRIC_REPRESENTATION_CONTEXT(3)
GLOBAL_UNCERTAINTY_ASSIGNED_CONTEXT((#252))
GLOBAL_UNIT_ASSIGNED_CONTEXT((#256,#258,#259))
REPRESENTATION_CONTEXT('','3D')
);
#255=(
GEOMETRIC_REPRESENTATION_CONTEXT(3)
GLOBAL_UNCERTAINTY_ASSIGNED_CONTEXT((#253))
GLOBAL_UNIT_ASSIGNED_CONTEXT((#256,#258,#259))
REPRESENTATION_CONTEXT('','3D')
);
#256=(
LENGTH_UNIT()
NAMED_UNIT(*)
SI_UNIT(.MILLI.,.METRE.)
);
#257=(
LENGTH_UNIT()
NAMED_UNIT(*)
SI_UNIT($,.METRE.)
);
#258=(
NAMED_UNIT(*)
PLANE_ANGLE_UNIT()
SI_UNIT($,.RADIAN.)
);
#259=(
NAMED_UNIT(*)
SI_UNIT($,.STERADIAN.)
SOLID_ANGLE_UNIT()
);
#260=SHAPE_DEFINITION_REPRESENTATION(#261,#262);
#261=PRODUCT_DEFINITION_SHAPE('',$,#264);
#262=SHAPE_REPRESENTATION('',(#117),#254);
#263=PRODUCT_DEFINITION_CONTEXT('part definition',#268,'design');
#264=PRODUCT_DEFINITION('goupille motoculteur toute usin\X\E9e',
'goupille motoculteur toute usin\X\E9e v2',#265,#263);
#265=PRODUCT_DEFINITION_FORMATION('',$,#270);
#266=PRODUCT_RELATED_PRODUCT_CATEGORY(
'goupille motoculteur toute usin\X\E9e v2',
'goupille motoculteur toute usin\X\E9e v2',(#270));
#267=APPLICATION_PROTOCOL_DEFINITION('international standard',
'automotive_design',2009,#268);
#268=APPLICATION_CONTEXT(
'Core Data for Automotive Mechanical Design Process');
#269=PRODUCT_CONTEXT('part definition',#268,'mechanical');
#270=PRODUCT('goupille motoculteur toute usin\X\E9e',
'goupille motoculteur toute usin\X\E9e v2',$,(#269));
#271=PRESENTATION_STYLE_ASSIGNMENT((#272));
#272=SURFACE_STYLE_USAGE(.BOTH.,#273);
#273=SURFACE_SIDE_STYLE('',(#274));
#274=SURFACE_STYLE_FILL_AREA(#275);
#275=FILL_AREA_STYLE('Acier - Satin\X\E9',(#276));
#276=FILL_AREA_STYLE_COLOUR('Acier - Satin\X\E9',#277);
#277=COLOUR_RGB('Acier - Satin\X\E9',0.627450980392157,0.627450980392157,
0.627450980392157);
ENDSEC;
END-ISO-10303-21;
