ISO-10303-21;
HEADER;
FILE_DESCRIPTION(('STEP AP214'),'1');
FILE_NAME('manchon304L.stp','2022-04-26T11:23:34',(''),(''),'Spatial InterOp 3D',' ',' ');
FILE_SCHEMA(('AUTOMOTIVE_DESIGN { 1 0 10303 214 1 1 1 1 }'));
ENDSEC;
DATA;
#1=MECHANICAL_DESIGN_GEOMETRIC_PRESENTATION_REPRESENTATION(' ',(#11,#12,#13,#14,#15,#16,#17,#18),#7);
#2=PRODUCT_DEFINITION_CONTEXT('',#19,'design');
#3=APPLICATION_PROTOCOL_DEFINITION('INTERNATIONAL STANDARD','automotive_design',1994,#19);
#4=PRODUCT_CATEGORY_RELATIONSHIP('NONE','NONE',#20,#21);
#5=SHAPE_DEFINITION_REPRESENTATION(#22,#23);
#6=SHAPE_DEFINITION_REPRESENTATION(#22,#24);
#7= (GEOMETRIC_REPRESENTATION_CONTEXT(3)GLOBAL_UNCERTAINTY_ASSIGNED_CONTEXT((#27))GLOBAL_UNIT_ASSIGNED_CONTEXT((#29,#30,#31))REPRESENTATION_CONTEXT('NONE','WORKSPACE'));
#11=STYLED_ITEM('',(#33),#34);
#12=STYLED_ITEM('',(#35),#36);
#13=STYLED_ITEM('',(#37),#38);
#14=STYLED_ITEM('',(#39),#40);
#15=STYLED_ITEM('',(#41),#42);
#16=STYLED_ITEM('',(#43),#44);
#17=STYLED_ITEM('',(#45),#46);
#18=STYLED_ITEM('',(#47),#48);
#19=APPLICATION_CONTEXT(' ');
#20=PRODUCT_CATEGORY('part','NONE');
#21=PRODUCT_RELATED_PRODUCT_CATEGORY('detail',' ',(#49));
#22=PRODUCT_DEFINITION_SHAPE('NONE','NONE',#50);
#23=ADVANCED_BREP_SHAPE_REPRESENTATION('Part_48',(#48,#51),#7);
#24=GEOMETRICALLY_BOUNDED_SURFACE_SHAPE_REPRESENTATION('1',(#52,#53),#7);
#27=UNCERTAINTY_MEASURE_WITH_UNIT(LENGTH_MEASURE(1.0E-06),#29,'','');
#29= (CONVERSION_BASED_UNIT('INCH',#56)LENGTH_UNIT()NAMED_UNIT(#59));
#30= (NAMED_UNIT(#61)PLANE_ANGLE_UNIT()SI_UNIT($,.RADIAN.));
#31= (NAMED_UNIT(#61)SOLID_ANGLE_UNIT()SI_UNIT($,.STERADIAN.));
#33=PRESENTATION_STYLE_ASSIGNMENT((#67));
#34=COMPOSITE_CURVE('Line_38',(#68),.U.);
#35=PRESENTATION_STYLE_ASSIGNMENT((#69));
#36=ADVANCED_FACE('',(#70),#71,.T.);
#37=PRESENTATION_STYLE_ASSIGNMENT((#72));
#38=ADVANCED_FACE('',(#73),#74,.F.);
#39=PRESENTATION_STYLE_ASSIGNMENT((#75));
#40=ADVANCED_FACE('',(#76),#77,.F.);
#41=PRESENTATION_STYLE_ASSIGNMENT((#78));
#42=ADVANCED_FACE('',(#79),#80,.T.);
#43=PRESENTATION_STYLE_ASSIGNMENT((#81));
#44=ADVANCED_FACE('',(#82,#83),#84,.T.);
#45=PRESENTATION_STYLE_ASSIGNMENT((#85));
#46=ADVANCED_FACE('',(#86,#87),#88,.F.);
#47=PRESENTATION_STYLE_ASSIGNMENT((#89));
#48=MANIFOLD_SOLID_BREP('Part_48',#90);
#49=PRODUCT('Part_48','','PART--DESC',(#91));
#50=PRODUCT_DEFINITION('','NONE',#92,#2);
#51=AXIS2_PLACEMENT_3D('',#93,#94,#95);
#52=GEOMETRIC_SET('1',(#34));
#53=AXIS2_PLACEMENT_3D('',#96,#97,#98);
#56=LENGTH_MEASURE_WITH_UNIT(LENGTH_MEASURE(25.4),#99);
#59=DIMENSIONAL_EXPONENTS(1.0,0.0,0.0,0.0,0.0,0.0,0.0);
#61=DIMENSIONAL_EXPONENTS(0.0,0.0,0.0,0.0,0.0,0.0,0.0);
#67=CURVE_STYLE('',#100,POSITIVE_LENGTH_MEASURE(1.0E-06),#101);
#68=COMPOSITE_CURVE_SEGMENT(.CONTINUOUS.,.T.,#102);
#69=SURFACE_STYLE_USAGE(.BOTH.,#103);
#70=FACE_OUTER_BOUND('',#104,.T.);
#71=CYLINDRICAL_SURFACE('',#105,0.594488188976378);
#72=SURFACE_STYLE_USAGE(.BOTH.,#106);
#73=FACE_OUTER_BOUND('',#107,.T.);
#74=CYLINDRICAL_SURFACE('',#108,0.566929133858268);
#75=SURFACE_STYLE_USAGE(.BOTH.,#109);
#76=FACE_OUTER_BOUND('',#110,.T.);
#77=CYLINDRICAL_SURFACE('',#111,0.566929133858268);
#78=SURFACE_STYLE_USAGE(.BOTH.,#112);
#79=FACE_OUTER_BOUND('',#113,.T.);
#80=CYLINDRICAL_SURFACE('',#114,0.594488188976378);
#81=SURFACE_STYLE_USAGE(.BOTH.,#115);
#82=FACE_BOUND('',#116,.T.);
#83=FACE_OUTER_BOUND('',#117,.T.);
#84=PLANE('',#118);
#85=SURFACE_STYLE_USAGE(.BOTH.,#119);
#86=FACE_BOUND('',#120,.T.);
#87=FACE_OUTER_BOUND('',#121,.T.);
#88=PLANE('',#122);
#89=SURFACE_STYLE_USAGE(.BOTH.,#123);
#90=CLOSED_SHELL('',(#36,#38,#40,#42,#44,#46));
#91=PRODUCT_CONTEXT('',#19,'mechanical');
#92=PRODUCT_DEFINITION_FORMATION_WITH_SPECIFIED_SOURCE(' ','NONE',#49,.NOT_KNOWN.);
#93=CARTESIAN_POINT('',(0.0,0.0,0.0));
#94=DIRECTION('',(0.0,0.0,1.0));
#95=DIRECTION('',(1.0,0.0,0.0));
#96=CARTESIAN_POINT('',(0.0,0.0,0.0));
#97=DIRECTION('',(0.0,0.0,1.0));
#98=DIRECTION('',(1.0,0.0,0.0));
#99= (NAMED_UNIT(#59)LENGTH_UNIT()SI_UNIT(.MILLI.,.METRE.));
#100=DRAUGHTING_PRE_DEFINED_CURVE_FONT('continuous');
#101=COLOUR_RGB('',0.0,0.0,0.0);
#102=TRIMMED_CURVE('',#125,(PARAMETER_VALUE(0.0)),(PARAMETER_VALUE(3.93700787401575)),.T.,.UNSPECIFIED.);
#103=SURFACE_SIDE_STYLE('',(#126));
#104=EDGE_LOOP('',(#127,#128,#129,#130));
#105=AXIS2_PLACEMENT_3D('',#131,#132,#133);
#106=SURFACE_SIDE_STYLE('',(#134));
#107=EDGE_LOOP('',(#135,#136,#137,#138));
#108=AXIS2_PLACEMENT_3D('',#139,#140,#141);
#109=SURFACE_SIDE_STYLE('',(#142));
#110=EDGE_LOOP('',(#143,#144,#145,#146));
#111=AXIS2_PLACEMENT_3D('',#147,#148,#149);
#112=SURFACE_SIDE_STYLE('',(#150));
#113=EDGE_LOOP('',(#151,#152,#153,#154));
#114=AXIS2_PLACEMENT_3D('',#155,#156,#157);
#115=SURFACE_SIDE_STYLE('',(#158));
#116=EDGE_LOOP('',(#159,#160));
#117=EDGE_LOOP('',(#161,#162));
#118=AXIS2_PLACEMENT_3D('',#163,#164,#165);
#119=SURFACE_SIDE_STYLE('',(#166));
#120=EDGE_LOOP('',(#167,#168));
#121=EDGE_LOOP('',(#169,#170));
#122=AXIS2_PLACEMENT_3D('',#171,#172,#173);
#123=SURFACE_SIDE_STYLE('',(#174));
#125=LINE('',#175,#176);
#126=SURFACE_STYLE_FILL_AREA(#177);
#127=ORIENTED_EDGE('',*,*,#178,.F.);
#128=ORIENTED_EDGE('',*,*,#179,.T.);
#129=ORIENTED_EDGE('',*,*,#180,.F.);
#130=ORIENTED_EDGE('',*,*,#181,.T.);
#131=CARTESIAN_POINT('',(0.0,0.0,0.0));
#132=DIRECTION('',(0.0,1.0,0.0));
#133=DIRECTION('',(-1.0,0.0,0.0));
#134=SURFACE_STYLE_FILL_AREA(#182);
#135=ORIENTED_EDGE('',*,*,#183,.F.);
#136=ORIENTED_EDGE('',*,*,#184,.F.);
#137=ORIENTED_EDGE('',*,*,#185,.F.);
#138=ORIENTED_EDGE('',*,*,#186,.F.);
#139=CARTESIAN_POINT('',(0.0,0.0,0.0));
#140=DIRECTION('',(0.0,1.0,0.0));
#141=DIRECTION('',(-1.0,0.0,0.0));
#142=SURFACE_STYLE_FILL_AREA(#187);
#143=ORIENTED_EDGE('',*,*,#183,.T.);
#144=ORIENTED_EDGE('',*,*,#188,.F.);
#145=ORIENTED_EDGE('',*,*,#185,.T.);
#146=ORIENTED_EDGE('',*,*,#189,.F.);
#147=CARTESIAN_POINT('',(0.0,0.0,0.0));
#148=DIRECTION('',(0.0,1.0,0.0));
#149=DIRECTION('',(-1.0,0.0,0.0));
#150=SURFACE_STYLE_FILL_AREA(#190);
#151=ORIENTED_EDGE('',*,*,#178,.T.);
#152=ORIENTED_EDGE('',*,*,#191,.T.);
#153=ORIENTED_EDGE('',*,*,#180,.T.);
#154=ORIENTED_EDGE('',*,*,#192,.T.);
#155=CARTESIAN_POINT('',(0.0,0.0,0.0));
#156=DIRECTION('',(0.0,1.0,0.0));
#157=DIRECTION('',(-1.0,0.0,0.0));
#158=SURFACE_STYLE_FILL_AREA(#193);
#159=ORIENTED_EDGE('',*,*,#189,.T.);
#160=ORIENTED_EDGE('',*,*,#184,.T.);
#161=ORIENTED_EDGE('',*,*,#191,.F.);
#162=ORIENTED_EDGE('',*,*,#181,.F.);
#163=CARTESIAN_POINT('',(0.0,3.93700787401575,0.0));
#164=DIRECTION('',(0.0,1.0,0.0));
#165=DIRECTION('',(0.0,0.0,1.0));
#166=SURFACE_STYLE_FILL_AREA(#194);
#167=ORIENTED_EDGE('',*,*,#186,.T.);
#168=ORIENTED_EDGE('',*,*,#188,.T.);
#169=ORIENTED_EDGE('',*,*,#179,.F.);
#170=ORIENTED_EDGE('',*,*,#192,.F.);
#171=CARTESIAN_POINT('',(0.0,0.0,0.0));
#172=DIRECTION('',(0.0,1.0,0.0));
#173=DIRECTION('',(0.0,0.0,1.0));
#174=SURFACE_STYLE_FILL_AREA(#195);
#175=CARTESIAN_POINT('',(0.0,0.0,0.0));
#176=VECTOR('',#196,1.0);
#177=FILL_AREA_STYLE('',(#197));
#178=EDGE_CURVE('',#198,#199,#200,.T.);
#179=EDGE_CURVE('',#198,#201,#202,.T.);
#180=EDGE_CURVE('',#203,#201,#204,.T.);
#181=EDGE_CURVE('',#203,#199,#205,.T.);
#182=FILL_AREA_STYLE('',(#206));
#183=EDGE_CURVE('',#207,#208,#209,.T.);
#184=EDGE_CURVE('',#210,#207,#211,.T.);
#185=EDGE_CURVE('',#212,#210,#213,.T.);
#186=EDGE_CURVE('',#208,#212,#214,.T.);
#187=FILL_AREA_STYLE('',(#215));
#188=EDGE_CURVE('',#212,#208,#216,.T.);
#189=EDGE_CURVE('',#207,#210,#217,.T.);
#190=FILL_AREA_STYLE('',(#218));
#191=EDGE_CURVE('',#199,#203,#219,.T.);
#192=EDGE_CURVE('',#201,#198,#220,.T.);
#193=FILL_AREA_STYLE('',(#221));
#194=FILL_AREA_STYLE('',(#222));
#195=FILL_AREA_STYLE('',(#223));
#196=DIRECTION('',(0.0,1.0,0.0));
#197=FILL_AREA_STYLE_COLOUR('',#224);
#198=VERTEX_POINT('',#225);
#199=VERTEX_POINT('',#226);
#200=LINE('',#227,#228);
#201=VERTEX_POINT('',#229);
#202=CIRCLE('',#230,0.594488188976378);
#203=VERTEX_POINT('',#231);
#204=LINE('',#232,#233);
#205=CIRCLE('',#234,0.594488188976378);
#206=FILL_AREA_STYLE_COLOUR('',#235);
#207=VERTEX_POINT('',#236);
#208=VERTEX_POINT('',#237);
#209=LINE('',#238,#239);
#210=VERTEX_POINT('',#240);
#211=CIRCLE('',#241,0.566929133858268);
#212=VERTEX_POINT('',#242);
#213=LINE('',#243,#244);
#214=CIRCLE('',#245,0.566929133858268);
#215=FILL_AREA_STYLE_COLOUR('',#246);
#216=CIRCLE('',#247,0.566929133858268);
#217=CIRCLE('',#248,0.566929133858268);
#218=FILL_AREA_STYLE_COLOUR('',#249);
#219=CIRCLE('',#250,0.594488188976378);
#220=CIRCLE('',#251,0.594488188976378);
#221=FILL_AREA_STYLE_COLOUR('',#252);
#222=FILL_AREA_STYLE_COLOUR('',#253);
#223=FILL_AREA_STYLE_COLOUR('',#254);
#224=COLOUR_RGB('',0.0,0.0,0.0);
#225=CARTESIAN_POINT('',(-0.594488188976378,0.0,0.0));
#226=CARTESIAN_POINT('',(-0.594488188976378,3.93700787401575,0.0));
#227=CARTESIAN_POINT('',(-0.594488188976378,0.0,-7.28038057760828E-17));
#228=VECTOR('',#255,1.0);
#229=CARTESIAN_POINT('',(0.594488188976378,0.0,7.28038057760828E-17));
#230=AXIS2_PLACEMENT_3D('',#256,#257,#258);
#231=CARTESIAN_POINT('',(0.594488188976378,3.93700787401575,7.28038057760828E-17));
#232=CARTESIAN_POINT('',(0.594488188976378,0.0,7.28038057760828E-17));
#233=VECTOR('',#259,1.0);
#234=AXIS2_PLACEMENT_3D('',#260,#261,#262);
#235=COLOUR_RGB('',0.0,0.0,0.0);
#236=CARTESIAN_POINT('',(-0.566929133858268,3.93700787401575,0.0));
#237=CARTESIAN_POINT('',(-0.566929133858268,0.0,0.0));
#238=CARTESIAN_POINT('',(-0.566929133858268,0.0,-6.94287949122909E-17));
#239=VECTOR('',#263,1.0);
#240=CARTESIAN_POINT('',(0.566929133858268,3.93700787401575,6.94287949122909E-17));
#241=AXIS2_PLACEMENT_3D('',#264,#265,#266);
#242=CARTESIAN_POINT('',(0.566929133858268,0.0,6.94287949122909E-17));
#243=CARTESIAN_POINT('',(0.566929133858268,0.0,6.94287949122909E-17));
#244=VECTOR('',#267,1.0);
#245=AXIS2_PLACEMENT_3D('',#268,#269,#270);
#246=COLOUR_RGB('',0.0,0.0,0.0);
#247=AXIS2_PLACEMENT_3D('',#271,#272,#273);
#248=AXIS2_PLACEMENT_3D('',#274,#275,#276);
#249=COLOUR_RGB('',0.0,0.0,0.0);
#250=AXIS2_PLACEMENT_3D('',#277,#278,#279);
#251=AXIS2_PLACEMENT_3D('',#280,#281,#282);
#252=COLOUR_RGB('',0.0,0.0,0.0);
#253=COLOUR_RGB('',0.0,0.0,0.0);
#254=COLOUR_RGB('',0.0,0.0,0.0);
#255=DIRECTION('',(0.0,1.0,0.0));
#256=CARTESIAN_POINT('',(0.0,0.0,0.0));
#257=DIRECTION('',(0.0,1.0,0.0));
#258=DIRECTION('',(-1.0,0.0,0.0));
#259=DIRECTION('',(-0.0,-1.0,-0.0));
#260=CARTESIAN_POINT('',(0.0,3.93700787401575,0.0));
#261=DIRECTION('',(-0.0,-1.0,-0.0));
#262=DIRECTION('',(-1.0,0.0,0.0));
#263=DIRECTION('',(0.0,-1.0,0.0));
#264=CARTESIAN_POINT('',(0.0,3.93700787401575,0.0));
#265=DIRECTION('',(-0.0,-1.0,-0.0));
#266=DIRECTION('',(-1.0,0.0,0.0));
#267=DIRECTION('',(0.0,1.0,0.0));
#268=CARTESIAN_POINT('',(0.0,0.0,0.0));
#269=DIRECTION('',(0.0,1.0,0.0));
#270=DIRECTION('',(-1.0,0.0,0.0));
#271=CARTESIAN_POINT('',(0.0,0.0,0.0));
#272=DIRECTION('',(0.0,1.0,0.0));
#273=DIRECTION('',(-1.0,0.0,0.0));
#274=CARTESIAN_POINT('',(0.0,3.93700787401575,0.0));
#275=DIRECTION('',(-0.0,-1.0,-0.0));
#276=DIRECTION('',(-1.0,0.0,0.0));
#277=CARTESIAN_POINT('',(0.0,3.93700787401575,0.0));
#278=DIRECTION('',(-0.0,-1.0,-0.0));
#279=DIRECTION('',(-1.0,0.0,0.0));
#280=CARTESIAN_POINT('',(0.0,0.0,0.0));
#281=DIRECTION('',(0.0,1.0,0.0));
#282=DIRECTION('',(-1.0,0.0,0.0));
#283=PRESENTATION_LAYER_ASSIGNMENT('3','Layer1',(#34,#48));
ENDSEC;
END-ISO-10303-21;
