ISO-10303-21;
HEADER;
/* Generated by software containing ST-Developer
 * from STEP Tools, Inc. (www.steptools.com) 
 */

FILE_DESCRIPTION(
/* description */ (''),
/* implementation_level */ '2;1');

FILE_NAME(
/* name */ 'C:/Users/sebas/Downloads/support de rail .step',
/* time_stamp */ '2022-04-12T11:44:57+02:00',
/* author */ (''),
/* organization */ (''),
/* preprocessor_version */ 'ST-DEVELOPER v18.1',
/* originating_system */ 'Autodesk Translation Framework v10.14.0.1471',

/* authorisation */ '');

FILE_SCHEMA (('AUTOMOTIVE_DESIGN { 1 0 10303 214 3 1 1 }'));
ENDSEC;

DATA;
#10=MECHANICAL_DESIGN_GEOMETRIC_PRESENTATION_REPRESENTATION('',(#13),#651);
#11=SHAPE_REPRESENTATION_RELATIONSHIP('SRR','None',#658,#12);
#12=ADVANCED_BREP_SHAPE_REPRESENTATION('',(#14),#650);
#13=STYLED_ITEM('',(#667),#14);
#14=MANIFOLD_SOLID_BREP('Corps1',#383);
#15=FACE_BOUND('',#80,.T.);
#16=FACE_BOUND('',#81,.T.);
#17=FACE_BOUND('',#82,.T.);
#18=FACE_BOUND('',#83,.T.);
#19=FACE_BOUND('',#84,.T.);
#20=FACE_BOUND('',#85,.T.);
#21=FACE_BOUND('',#86,.T.);
#22=FACE_BOUND('',#87,.T.);
#23=FACE_BOUND('',#88,.T.);
#24=FACE_BOUND('',#89,.T.);
#25=FACE_BOUND('',#90,.T.);
#26=FACE_BOUND('',#91,.T.);
#27=FACE_BOUND('',#93,.T.);
#28=FACE_BOUND('',#94,.T.);
#29=FACE_BOUND('',#95,.T.);
#30=FACE_BOUND('',#96,.T.);
#31=FACE_BOUND('',#97,.T.);
#32=FACE_BOUND('',#98,.T.);
#33=FACE_BOUND('',#99,.T.);
#34=FACE_BOUND('',#100,.T.);
#35=FACE_BOUND('',#101,.T.);
#36=FACE_BOUND('',#102,.T.);
#37=FACE_BOUND('',#103,.T.);
#38=FACE_BOUND('',#104,.T.);
#39=PLANE('',#433);
#40=PLANE('',#434);
#41=PLANE('',#435);
#42=PLANE('',#436);
#43=PLANE('',#437);
#44=PLANE('',#438);
#45=FACE_OUTER_BOUND('',#63,.T.);
#46=FACE_OUTER_BOUND('',#64,.T.);
#47=FACE_OUTER_BOUND('',#65,.T.);
#48=FACE_OUTER_BOUND('',#66,.T.);
#49=FACE_OUTER_BOUND('',#67,.T.);
#50=FACE_OUTER_BOUND('',#68,.T.);
#51=FACE_OUTER_BOUND('',#69,.T.);
#52=FACE_OUTER_BOUND('',#70,.T.);
#53=FACE_OUTER_BOUND('',#71,.T.);
#54=FACE_OUTER_BOUND('',#72,.T.);
#55=FACE_OUTER_BOUND('',#73,.T.);
#56=FACE_OUTER_BOUND('',#74,.T.);
#57=FACE_OUTER_BOUND('',#75,.T.);
#58=FACE_OUTER_BOUND('',#76,.T.);
#59=FACE_OUTER_BOUND('',#77,.T.);
#60=FACE_OUTER_BOUND('',#78,.T.);
#61=FACE_OUTER_BOUND('',#79,.T.);
#62=FACE_OUTER_BOUND('',#92,.T.);
#63=EDGE_LOOP('',(#257,#258,#259,#260));
#64=EDGE_LOOP('',(#261,#262,#263,#264));
#65=EDGE_LOOP('',(#265,#266,#267,#268));
#66=EDGE_LOOP('',(#269,#270,#271,#272));
#67=EDGE_LOOP('',(#273,#274,#275,#276));
#68=EDGE_LOOP('',(#277,#278,#279,#280));
#69=EDGE_LOOP('',(#281,#282,#283,#284));
#70=EDGE_LOOP('',(#285,#286,#287,#288));
#71=EDGE_LOOP('',(#289,#290,#291,#292));
#72=EDGE_LOOP('',(#293,#294,#295,#296));
#73=EDGE_LOOP('',(#297,#298,#299,#300));
#74=EDGE_LOOP('',(#301,#302,#303,#304));
#75=EDGE_LOOP('',(#305,#306,#307,#308));
#76=EDGE_LOOP('',(#309,#310,#311,#312));
#77=EDGE_LOOP('',(#313,#314,#315,#316));
#78=EDGE_LOOP('',(#317,#318,#319,#320));
#79=EDGE_LOOP('',(#321,#322,#323,#324));
#80=EDGE_LOOP('',(#325));
#81=EDGE_LOOP('',(#326));
#82=EDGE_LOOP('',(#327));
#83=EDGE_LOOP('',(#328));
#84=EDGE_LOOP('',(#329));
#85=EDGE_LOOP('',(#330));
#86=EDGE_LOOP('',(#331));
#87=EDGE_LOOP('',(#332));
#88=EDGE_LOOP('',(#333));
#89=EDGE_LOOP('',(#334));
#90=EDGE_LOOP('',(#335));
#91=EDGE_LOOP('',(#336));
#92=EDGE_LOOP('',(#337,#338,#339,#340));
#93=EDGE_LOOP('',(#341));
#94=EDGE_LOOP('',(#342));
#95=EDGE_LOOP('',(#343));
#96=EDGE_LOOP('',(#344));
#97=EDGE_LOOP('',(#345));
#98=EDGE_LOOP('',(#346));
#99=EDGE_LOOP('',(#347));
#100=EDGE_LOOP('',(#348));
#101=EDGE_LOOP('',(#349));
#102=EDGE_LOOP('',(#350));
#103=EDGE_LOOP('',(#351));
#104=EDGE_LOOP('',(#352));
#105=LINE('',#554,#129);
#106=LINE('',#560,#130);
#107=LINE('',#566,#131);
#108=LINE('',#572,#132);
#109=LINE('',#578,#133);
#110=LINE('',#584,#134);
#111=LINE('',#590,#135);
#112=LINE('',#596,#136);
#113=LINE('',#602,#137);
#114=LINE('',#608,#138);
#115=LINE('',#614,#139);
#116=LINE('',#620,#140);
#117=LINE('',#625,#141);
#118=LINE('',#627,#142);
#119=LINE('',#629,#143);
#120=LINE('',#630,#144);
#121=LINE('',#633,#145);
#122=LINE('',#635,#146);
#123=LINE('',#636,#147);
#124=LINE('',#639,#148);
#125=LINE('',#641,#149);
#126=LINE('',#642,#150);
#127=LINE('',#644,#151);
#128=LINE('',#645,#152);
#129=VECTOR('',#445,3.5);
#130=VECTOR('',#452,3.5);
#131=VECTOR('',#459,3.5);
#132=VECTOR('',#466,3.5);
#133=VECTOR('',#473,3.5);
#134=VECTOR('',#480,3.5);
#135=VECTOR('',#487,3.50000000000001);
#136=VECTOR('',#494,3.5);
#137=VECTOR('',#501,3.5);
#138=VECTOR('',#508,3.5);
#139=VECTOR('',#515,3.5);
#140=VECTOR('',#522,3.5);
#141=VECTOR('',#527,10.);
#142=VECTOR('',#528,10.);
#143=VECTOR('',#529,10.);
#144=VECTOR('',#530,10.);
#145=VECTOR('',#533,10.);
#146=VECTOR('',#534,10.);
#147=VECTOR('',#535,10.);
#148=VECTOR('',#538,10.);
#149=VECTOR('',#539,10.);
#150=VECTOR('',#540,10.);
#151=VECTOR('',#543,10.);
#152=VECTOR('',#544,10.);
#153=CIRCLE('',#398,3.5);
#154=CIRCLE('',#399,3.5);
#155=CIRCLE('',#401,3.5);
#156=CIRCLE('',#402,3.5);
#157=CIRCLE('',#404,3.5);
#158=CIRCLE('',#405,3.5);
#159=CIRCLE('',#407,3.5);
#160=CIRCLE('',#408,3.5);
#161=CIRCLE('',#410,3.5);
#162=CIRCLE('',#411,3.5);
#163=CIRCLE('',#413,3.5);
#164=CIRCLE('',#414,3.5);
#165=CIRCLE('',#416,3.50000000000001);
#166=CIRCLE('',#417,3.50000000000001);
#167=CIRCLE('',#419,3.5);
#168=CIRCLE('',#420,3.5);
#169=CIRCLE('',#422,3.5);
#170=CIRCLE('',#423,3.5);
#171=CIRCLE('',#425,3.5);
#172=CIRCLE('',#426,3.5);
#173=CIRCLE('',#428,3.5);
#174=CIRCLE('',#429,3.5);
#175=CIRCLE('',#431,3.5);
#176=CIRCLE('',#432,3.5);
#177=VERTEX_POINT('',#551);
#178=VERTEX_POINT('',#553);
#179=VERTEX_POINT('',#557);
#180=VERTEX_POINT('',#559);
#181=VERTEX_POINT('',#563);
#182=VERTEX_POINT('',#565);
#183=VERTEX_POINT('',#569);
#184=VERTEX_POINT('',#571);
#185=VERTEX_POINT('',#575);
#186=VERTEX_POINT('',#577);
#187=VERTEX_POINT('',#581);
#188=VERTEX_POINT('',#583);
#189=VERTEX_POINT('',#587);
#190=VERTEX_POINT('',#589);
#191=VERTEX_POINT('',#593);
#192=VERTEX_POINT('',#595);
#193=VERTEX_POINT('',#599);
#194=VERTEX_POINT('',#601);
#195=VERTEX_POINT('',#605);
#196=VERTEX_POINT('',#607);
#197=VERTEX_POINT('',#611);
#198=VERTEX_POINT('',#613);
#199=VERTEX_POINT('',#617);
#200=VERTEX_POINT('',#619);
#201=VERTEX_POINT('',#623);
#202=VERTEX_POINT('',#624);
#203=VERTEX_POINT('',#626);
#204=VERTEX_POINT('',#628);
#205=VERTEX_POINT('',#632);
#206=VERTEX_POINT('',#634);
#207=VERTEX_POINT('',#638);
#208=VERTEX_POINT('',#640);
#209=EDGE_CURVE('',#177,#177,#153,.T.);
#210=EDGE_CURVE('',#177,#178,#105,.T.);
#211=EDGE_CURVE('',#178,#178,#154,.T.);
#212=EDGE_CURVE('',#179,#179,#155,.T.);
#213=EDGE_CURVE('',#179,#180,#106,.T.);
#214=EDGE_CURVE('',#180,#180,#156,.T.);
#215=EDGE_CURVE('',#181,#181,#157,.T.);
#216=EDGE_CURVE('',#181,#182,#107,.T.);
#217=EDGE_CURVE('',#182,#182,#158,.T.);
#218=EDGE_CURVE('',#183,#183,#159,.T.);
#219=EDGE_CURVE('',#183,#184,#108,.T.);
#220=EDGE_CURVE('',#184,#184,#160,.T.);
#221=EDGE_CURVE('',#185,#185,#161,.T.);
#222=EDGE_CURVE('',#185,#186,#109,.T.);
#223=EDGE_CURVE('',#186,#186,#162,.T.);
#224=EDGE_CURVE('',#187,#187,#163,.T.);
#225=EDGE_CURVE('',#187,#188,#110,.T.);
#226=EDGE_CURVE('',#188,#188,#164,.T.);
#227=EDGE_CURVE('',#189,#189,#165,.T.);
#228=EDGE_CURVE('',#189,#190,#111,.T.);
#229=EDGE_CURVE('',#190,#190,#166,.T.);
#230=EDGE_CURVE('',#191,#191,#167,.T.);
#231=EDGE_CURVE('',#191,#192,#112,.T.);
#232=EDGE_CURVE('',#192,#192,#168,.T.);
#233=EDGE_CURVE('',#193,#193,#169,.T.);
#234=EDGE_CURVE('',#193,#194,#113,.T.);
#235=EDGE_CURVE('',#194,#194,#170,.T.);
#236=EDGE_CURVE('',#195,#195,#171,.T.);
#237=EDGE_CURVE('',#195,#196,#114,.T.);
#238=EDGE_CURVE('',#196,#196,#172,.T.);
#239=EDGE_CURVE('',#197,#197,#173,.T.);
#240=EDGE_CURVE('',#197,#198,#115,.T.);
#241=EDGE_CURVE('',#198,#198,#174,.T.);
#242=EDGE_CURVE('',#199,#199,#175,.T.);
#243=EDGE_CURVE('',#199,#200,#116,.T.);
#244=EDGE_CURVE('',#200,#200,#176,.T.);
#245=EDGE_CURVE('',#201,#202,#117,.T.);
#246=EDGE_CURVE('',#202,#203,#118,.T.);
#247=EDGE_CURVE('',#204,#203,#119,.T.);
#248=EDGE_CURVE('',#201,#204,#120,.T.);
#249=EDGE_CURVE('',#205,#201,#121,.T.);
#250=EDGE_CURVE('',#206,#204,#122,.T.);
#251=EDGE_CURVE('',#205,#206,#123,.T.);
#252=EDGE_CURVE('',#207,#205,#124,.T.);
#253=EDGE_CURVE('',#208,#206,#125,.T.);
#254=EDGE_CURVE('',#207,#208,#126,.T.);
#255=EDGE_CURVE('',#202,#207,#127,.T.);
#256=EDGE_CURVE('',#203,#208,#128,.T.);
#257=ORIENTED_EDGE('',*,*,#209,.F.);
#258=ORIENTED_EDGE('',*,*,#210,.T.);
#259=ORIENTED_EDGE('',*,*,#211,.T.);
#260=ORIENTED_EDGE('',*,*,#210,.F.);
#261=ORIENTED_EDGE('',*,*,#212,.F.);
#262=ORIENTED_EDGE('',*,*,#213,.T.);
#263=ORIENTED_EDGE('',*,*,#214,.T.);
#264=ORIENTED_EDGE('',*,*,#213,.F.);
#265=ORIENTED_EDGE('',*,*,#215,.F.);
#266=ORIENTED_EDGE('',*,*,#216,.T.);
#267=ORIENTED_EDGE('',*,*,#217,.T.);
#268=ORIENTED_EDGE('',*,*,#216,.F.);
#269=ORIENTED_EDGE('',*,*,#218,.F.);
#270=ORIENTED_EDGE('',*,*,#219,.T.);
#271=ORIENTED_EDGE('',*,*,#220,.T.);
#272=ORIENTED_EDGE('',*,*,#219,.F.);
#273=ORIENTED_EDGE('',*,*,#221,.F.);
#274=ORIENTED_EDGE('',*,*,#222,.T.);
#275=ORIENTED_EDGE('',*,*,#223,.T.);
#276=ORIENTED_EDGE('',*,*,#222,.F.);
#277=ORIENTED_EDGE('',*,*,#224,.F.);
#278=ORIENTED_EDGE('',*,*,#225,.T.);
#279=ORIENTED_EDGE('',*,*,#226,.T.);
#280=ORIENTED_EDGE('',*,*,#225,.F.);
#281=ORIENTED_EDGE('',*,*,#227,.F.);
#282=ORIENTED_EDGE('',*,*,#228,.T.);
#283=ORIENTED_EDGE('',*,*,#229,.T.);
#284=ORIENTED_EDGE('',*,*,#228,.F.);
#285=ORIENTED_EDGE('',*,*,#230,.F.);
#286=ORIENTED_EDGE('',*,*,#231,.T.);
#287=ORIENTED_EDGE('',*,*,#232,.T.);
#288=ORIENTED_EDGE('',*,*,#231,.F.);
#289=ORIENTED_EDGE('',*,*,#233,.F.);
#290=ORIENTED_EDGE('',*,*,#234,.T.);
#291=ORIENTED_EDGE('',*,*,#235,.T.);
#292=ORIENTED_EDGE('',*,*,#234,.F.);
#293=ORIENTED_EDGE('',*,*,#236,.F.);
#294=ORIENTED_EDGE('',*,*,#237,.T.);
#295=ORIENTED_EDGE('',*,*,#238,.T.);
#296=ORIENTED_EDGE('',*,*,#237,.F.);
#297=ORIENTED_EDGE('',*,*,#239,.F.);
#298=ORIENTED_EDGE('',*,*,#240,.T.);
#299=ORIENTED_EDGE('',*,*,#241,.T.);
#300=ORIENTED_EDGE('',*,*,#240,.F.);
#301=ORIENTED_EDGE('',*,*,#242,.F.);
#302=ORIENTED_EDGE('',*,*,#243,.T.);
#303=ORIENTED_EDGE('',*,*,#244,.T.);
#304=ORIENTED_EDGE('',*,*,#243,.F.);
#305=ORIENTED_EDGE('',*,*,#245,.T.);
#306=ORIENTED_EDGE('',*,*,#246,.T.);
#307=ORIENTED_EDGE('',*,*,#247,.F.);
#308=ORIENTED_EDGE('',*,*,#248,.F.);
#309=ORIENTED_EDGE('',*,*,#249,.T.);
#310=ORIENTED_EDGE('',*,*,#248,.T.);
#311=ORIENTED_EDGE('',*,*,#250,.F.);
#312=ORIENTED_EDGE('',*,*,#251,.F.);
#313=ORIENTED_EDGE('',*,*,#252,.T.);
#314=ORIENTED_EDGE('',*,*,#251,.T.);
#315=ORIENTED_EDGE('',*,*,#253,.F.);
#316=ORIENTED_EDGE('',*,*,#254,.F.);
#317=ORIENTED_EDGE('',*,*,#255,.T.);
#318=ORIENTED_EDGE('',*,*,#254,.T.);
#319=ORIENTED_EDGE('',*,*,#256,.F.);
#320=ORIENTED_EDGE('',*,*,#246,.F.);
#321=ORIENTED_EDGE('',*,*,#256,.T.);
#322=ORIENTED_EDGE('',*,*,#253,.T.);
#323=ORIENTED_EDGE('',*,*,#250,.T.);
#324=ORIENTED_EDGE('',*,*,#247,.T.);
#325=ORIENTED_EDGE('',*,*,#242,.T.);
#326=ORIENTED_EDGE('',*,*,#239,.T.);
#327=ORIENTED_EDGE('',*,*,#236,.T.);
#328=ORIENTED_EDGE('',*,*,#233,.T.);
#329=ORIENTED_EDGE('',*,*,#230,.T.);
#330=ORIENTED_EDGE('',*,*,#227,.T.);
#331=ORIENTED_EDGE('',*,*,#224,.T.);
#332=ORIENTED_EDGE('',*,*,#221,.T.);
#333=ORIENTED_EDGE('',*,*,#218,.T.);
#334=ORIENTED_EDGE('',*,*,#215,.T.);
#335=ORIENTED_EDGE('',*,*,#212,.T.);
#336=ORIENTED_EDGE('',*,*,#209,.T.);
#337=ORIENTED_EDGE('',*,*,#255,.F.);
#338=ORIENTED_EDGE('',*,*,#245,.F.);
#339=ORIENTED_EDGE('',*,*,#249,.F.);
#340=ORIENTED_EDGE('',*,*,#252,.F.);
#341=ORIENTED_EDGE('',*,*,#244,.F.);
#342=ORIENTED_EDGE('',*,*,#241,.F.);
#343=ORIENTED_EDGE('',*,*,#238,.F.);
#344=ORIENTED_EDGE('',*,*,#235,.F.);
#345=ORIENTED_EDGE('',*,*,#232,.F.);
#346=ORIENTED_EDGE('',*,*,#229,.F.);
#347=ORIENTED_EDGE('',*,*,#226,.F.);
#348=ORIENTED_EDGE('',*,*,#223,.F.);
#349=ORIENTED_EDGE('',*,*,#220,.F.);
#350=ORIENTED_EDGE('',*,*,#217,.F.);
#351=ORIENTED_EDGE('',*,*,#214,.F.);
#352=ORIENTED_EDGE('',*,*,#211,.F.);
#353=CYLINDRICAL_SURFACE('',#397,3.5);
#354=CYLINDRICAL_SURFACE('',#400,3.5);
#355=CYLINDRICAL_SURFACE('',#403,3.5);
#356=CYLINDRICAL_SURFACE('',#406,3.5);
#357=CYLINDRICAL_SURFACE('',#409,3.5);
#358=CYLINDRICAL_SURFACE('',#412,3.5);
#359=CYLINDRICAL_SURFACE('',#415,3.50000000000001);
#360=CYLINDRICAL_SURFACE('',#418,3.5);
#361=CYLINDRICAL_SURFACE('',#421,3.5);
#362=CYLINDRICAL_SURFACE('',#424,3.5);
#363=CYLINDRICAL_SURFACE('',#427,3.5);
#364=CYLINDRICAL_SURFACE('',#430,3.5);
#365=ADVANCED_FACE('',(#45),#353,.F.);
#366=ADVANCED_FACE('',(#46),#354,.F.);
#367=ADVANCED_FACE('',(#47),#355,.F.);
#368=ADVANCED_FACE('',(#48),#356,.F.);
#369=ADVANCED_FACE('',(#49),#357,.F.);
#370=ADVANCED_FACE('',(#50),#358,.F.);
#371=ADVANCED_FACE('',(#51),#359,.F.);
#372=ADVANCED_FACE('',(#52),#360,.F.);
#373=ADVANCED_FACE('',(#53),#361,.F.);
#374=ADVANCED_FACE('',(#54),#362,.F.);
#375=ADVANCED_FACE('',(#55),#363,.F.);
#376=ADVANCED_FACE('',(#56),#364,.F.);
#377=ADVANCED_FACE('',(#57),#39,.T.);
#378=ADVANCED_FACE('',(#58),#40,.T.);
#379=ADVANCED_FACE('',(#59),#41,.T.);
#380=ADVANCED_FACE('',(#60),#42,.T.);
#381=ADVANCED_FACE('',(#61,#15,#16,#17,#18,#19,#20,#21,#22,#23,#24,#25,
#26),#43,.T.);
#382=ADVANCED_FACE('',(#62,#27,#28,#29,#30,#31,#32,#33,#34,#35,#36,#37,
#38),#44,.F.);
#383=CLOSED_SHELL('',(#365,#366,#367,#368,#369,#370,#371,#372,#373,#374,
#375,#376,#377,#378,#379,#380,#381,#382));
#384=DERIVED_UNIT_ELEMENT(#386,1.);
#385=DERIVED_UNIT_ELEMENT(#653,-3.);
#386=(
MASS_UNIT()
NAMED_UNIT(*)
SI_UNIT(.KILO.,.GRAM.)
);
#387=DERIVED_UNIT((#384,#385));
#388=MEASURE_REPRESENTATION_ITEM('density measure',
POSITIVE_RATIO_MEASURE(7850.),#387);
#389=PROPERTY_DEFINITION_REPRESENTATION(#394,#391);
#390=PROPERTY_DEFINITION_REPRESENTATION(#395,#392);
#391=REPRESENTATION('material name',(#393),#650);
#392=REPRESENTATION('density',(#388),#650);
#393=DESCRIPTIVE_REPRESENTATION_ITEM('Acier','Acier');
#394=PROPERTY_DEFINITION('material property','material name',#660);
#395=PROPERTY_DEFINITION('material property','density of part',#660);
#396=AXIS2_PLACEMENT_3D('placement',#549,#439,#440);
#397=AXIS2_PLACEMENT_3D('',#550,#441,#442);
#398=AXIS2_PLACEMENT_3D('',#552,#443,#444);
#399=AXIS2_PLACEMENT_3D('',#555,#446,#447);
#400=AXIS2_PLACEMENT_3D('',#556,#448,#449);
#401=AXIS2_PLACEMENT_3D('',#558,#450,#451);
#402=AXIS2_PLACEMENT_3D('',#561,#453,#454);
#403=AXIS2_PLACEMENT_3D('',#562,#455,#456);
#404=AXIS2_PLACEMENT_3D('',#564,#457,#458);
#405=AXIS2_PLACEMENT_3D('',#567,#460,#461);
#406=AXIS2_PLACEMENT_3D('',#568,#462,#463);
#407=AXIS2_PLACEMENT_3D('',#570,#464,#465);
#408=AXIS2_PLACEMENT_3D('',#573,#467,#468);
#409=AXIS2_PLACEMENT_3D('',#574,#469,#470);
#410=AXIS2_PLACEMENT_3D('',#576,#471,#472);
#411=AXIS2_PLACEMENT_3D('',#579,#474,#475);
#412=AXIS2_PLACEMENT_3D('',#580,#476,#477);
#413=AXIS2_PLACEMENT_3D('',#582,#478,#479);
#414=AXIS2_PLACEMENT_3D('',#585,#481,#482);
#415=AXIS2_PLACEMENT_3D('',#586,#483,#484);
#416=AXIS2_PLACEMENT_3D('',#588,#485,#486);
#417=AXIS2_PLACEMENT_3D('',#591,#488,#489);
#418=AXIS2_PLACEMENT_3D('',#592,#490,#491);
#419=AXIS2_PLACEMENT_3D('',#594,#492,#493);
#420=AXIS2_PLACEMENT_3D('',#597,#495,#496);
#421=AXIS2_PLACEMENT_3D('',#598,#497,#498);
#422=AXIS2_PLACEMENT_3D('',#600,#499,#500);
#423=AXIS2_PLACEMENT_3D('',#603,#502,#503);
#424=AXIS2_PLACEMENT_3D('',#604,#504,#505);
#425=AXIS2_PLACEMENT_3D('',#606,#506,#507);
#426=AXIS2_PLACEMENT_3D('',#609,#509,#510);
#427=AXIS2_PLACEMENT_3D('',#610,#511,#512);
#428=AXIS2_PLACEMENT_3D('',#612,#513,#514);
#429=AXIS2_PLACEMENT_3D('',#615,#516,#517);
#430=AXIS2_PLACEMENT_3D('',#616,#518,#519);
#431=AXIS2_PLACEMENT_3D('',#618,#520,#521);
#432=AXIS2_PLACEMENT_3D('',#621,#523,#524);
#433=AXIS2_PLACEMENT_3D('',#622,#525,#526);
#434=AXIS2_PLACEMENT_3D('',#631,#531,#532);
#435=AXIS2_PLACEMENT_3D('',#637,#536,#537);
#436=AXIS2_PLACEMENT_3D('',#643,#541,#542);
#437=AXIS2_PLACEMENT_3D('',#646,#545,#546);
#438=AXIS2_PLACEMENT_3D('',#647,#547,#548);
#439=DIRECTION('axis',(0.,0.,1.));
#440=DIRECTION('refdir',(1.,0.,0.));
#441=DIRECTION('center_axis',(0.,0.,1.));
#442=DIRECTION('ref_axis',(1.,0.,0.));
#443=DIRECTION('center_axis',(0.,0.,-1.));
#444=DIRECTION('ref_axis',(1.,0.,0.));
#445=DIRECTION('',(0.,0.,-1.));
#446=DIRECTION('center_axis',(0.,0.,-1.));
#447=DIRECTION('ref_axis',(1.,0.,0.));
#448=DIRECTION('center_axis',(0.,0.,1.));
#449=DIRECTION('ref_axis',(1.,0.,0.));
#450=DIRECTION('center_axis',(0.,0.,-1.));
#451=DIRECTION('ref_axis',(1.,0.,0.));
#452=DIRECTION('',(0.,0.,-1.));
#453=DIRECTION('center_axis',(0.,0.,-1.));
#454=DIRECTION('ref_axis',(1.,0.,0.));
#455=DIRECTION('center_axis',(0.,0.,1.));
#456=DIRECTION('ref_axis',(1.,0.,0.));
#457=DIRECTION('center_axis',(0.,0.,-1.));
#458=DIRECTION('ref_axis',(1.,0.,0.));
#459=DIRECTION('',(0.,0.,-1.));
#460=DIRECTION('center_axis',(0.,0.,-1.));
#461=DIRECTION('ref_axis',(1.,0.,0.));
#462=DIRECTION('center_axis',(0.,0.,1.));
#463=DIRECTION('ref_axis',(1.,0.,0.));
#464=DIRECTION('center_axis',(0.,0.,-1.));
#465=DIRECTION('ref_axis',(1.,0.,0.));
#466=DIRECTION('',(0.,0.,-1.));
#467=DIRECTION('center_axis',(0.,0.,-1.));
#468=DIRECTION('ref_axis',(1.,0.,0.));
#469=DIRECTION('center_axis',(0.,0.,1.));
#470=DIRECTION('ref_axis',(1.,0.,0.));
#471=DIRECTION('center_axis',(0.,0.,-1.));
#472=DIRECTION('ref_axis',(1.,0.,0.));
#473=DIRECTION('',(0.,0.,-1.));
#474=DIRECTION('center_axis',(0.,0.,-1.));
#475=DIRECTION('ref_axis',(1.,0.,0.));
#476=DIRECTION('center_axis',(0.,0.,1.));
#477=DIRECTION('ref_axis',(1.,0.,0.));
#478=DIRECTION('center_axis',(0.,0.,-1.));
#479=DIRECTION('ref_axis',(1.,0.,0.));
#480=DIRECTION('',(0.,0.,-1.));
#481=DIRECTION('center_axis',(0.,0.,-1.));
#482=DIRECTION('ref_axis',(1.,0.,0.));
#483=DIRECTION('center_axis',(0.,0.,1.));
#484=DIRECTION('ref_axis',(1.,0.,0.));
#485=DIRECTION('center_axis',(0.,0.,-1.));
#486=DIRECTION('ref_axis',(1.,0.,0.));
#487=DIRECTION('',(0.,0.,-1.));
#488=DIRECTION('center_axis',(0.,0.,-1.));
#489=DIRECTION('ref_axis',(1.,0.,0.));
#490=DIRECTION('center_axis',(0.,0.,1.));
#491=DIRECTION('ref_axis',(1.,0.,0.));
#492=DIRECTION('center_axis',(0.,0.,-1.));
#493=DIRECTION('ref_axis',(1.,0.,0.));
#494=DIRECTION('',(0.,0.,-1.));
#495=DIRECTION('center_axis',(0.,0.,-1.));
#496=DIRECTION('ref_axis',(1.,0.,0.));
#497=DIRECTION('center_axis',(0.,0.,1.));
#498=DIRECTION('ref_axis',(1.,0.,0.));
#499=DIRECTION('center_axis',(0.,0.,-1.));
#500=DIRECTION('ref_axis',(1.,0.,0.));
#501=DIRECTION('',(0.,0.,-1.));
#502=DIRECTION('center_axis',(0.,0.,-1.));
#503=DIRECTION('ref_axis',(1.,0.,0.));
#504=DIRECTION('center_axis',(0.,0.,1.));
#505=DIRECTION('ref_axis',(1.,0.,0.));
#506=DIRECTION('center_axis',(0.,0.,-1.));
#507=DIRECTION('ref_axis',(1.,0.,0.));
#508=DIRECTION('',(0.,0.,-1.));
#509=DIRECTION('center_axis',(0.,0.,-1.));
#510=DIRECTION('ref_axis',(1.,0.,0.));
#511=DIRECTION('center_axis',(0.,0.,1.));
#512=DIRECTION('ref_axis',(1.,0.,0.));
#513=DIRECTION('center_axis',(0.,0.,-1.));
#514=DIRECTION('ref_axis',(1.,0.,0.));
#515=DIRECTION('',(0.,0.,-1.));
#516=DIRECTION('center_axis',(0.,0.,-1.));
#517=DIRECTION('ref_axis',(1.,0.,0.));
#518=DIRECTION('center_axis',(0.,0.,1.));
#519=DIRECTION('ref_axis',(1.,0.,0.));
#520=DIRECTION('center_axis',(0.,0.,-1.));
#521=DIRECTION('ref_axis',(1.,0.,0.));
#522=DIRECTION('',(0.,0.,-1.));
#523=DIRECTION('center_axis',(0.,0.,-1.));
#524=DIRECTION('ref_axis',(1.,0.,0.));
#525=DIRECTION('center_axis',(-1.48029736616688E-17,1.,0.));
#526=DIRECTION('ref_axis',(-1.,-1.48029736616688E-17,0.));
#527=DIRECTION('',(-1.,-1.48029736616688E-17,0.));
#528=DIRECTION('',(0.,0.,1.));
#529=DIRECTION('',(-1.,-1.48029736616688E-17,0.));
#530=DIRECTION('',(0.,0.,1.));
#531=DIRECTION('center_axis',(1.,-3.5527136788005E-16,0.));
#532=DIRECTION('ref_axis',(3.5527136788005E-16,1.,0.));
#533=DIRECTION('',(3.5527136788005E-16,1.,0.));
#534=DIRECTION('',(3.5527136788005E-16,1.,0.));
#535=DIRECTION('',(0.,0.,1.));
#536=DIRECTION('center_axis',(0.,-1.,0.));
#537=DIRECTION('ref_axis',(1.,0.,0.));
#538=DIRECTION('',(1.,0.,0.));
#539=DIRECTION('',(1.,0.,0.));
#540=DIRECTION('',(0.,0.,1.));
#541=DIRECTION('center_axis',(-1.,7.105427357601E-16,0.));
#542=DIRECTION('ref_axis',(-7.105427357601E-16,-1.,0.));
#543=DIRECTION('',(-7.105427357601E-16,-1.,0.));
#544=DIRECTION('',(-7.105427357601E-16,-1.,0.));
#545=DIRECTION('center_axis',(0.,0.,1.));
#546=DIRECTION('ref_axis',(1.,0.,0.));
#547=DIRECTION('center_axis',(0.,0.,1.));
#548=DIRECTION('ref_axis',(1.,0.,0.));
#549=CARTESIAN_POINT('',(0.,0.,0.));
#550=CARTESIAN_POINT('Origin',(142.,-17.5,0.));
#551=CARTESIAN_POINT('',(138.5,-17.5,10.));
#552=CARTESIAN_POINT('Origin',(142.,-17.5,10.));
#553=CARTESIAN_POINT('',(138.5,-17.5,0.));
#554=CARTESIAN_POINT('',(138.5,-17.5,0.));
#555=CARTESIAN_POINT('Origin',(142.,-17.5,0.));
#556=CARTESIAN_POINT('Origin',(107.,-17.5,0.));
#557=CARTESIAN_POINT('',(103.5,-17.5,10.));
#558=CARTESIAN_POINT('Origin',(107.,-17.5,10.));
#559=CARTESIAN_POINT('',(103.5,-17.5,0.));
#560=CARTESIAN_POINT('',(103.5,-17.5,0.));
#561=CARTESIAN_POINT('Origin',(107.,-17.5,0.));
#562=CARTESIAN_POINT('Origin',(-142.,17.5,0.));
#563=CARTESIAN_POINT('',(-145.5,17.5,10.));
#564=CARTESIAN_POINT('Origin',(-142.,17.5,10.));
#565=CARTESIAN_POINT('',(-145.5,17.5,0.));
#566=CARTESIAN_POINT('',(-145.5,17.5,0.));
#567=CARTESIAN_POINT('Origin',(-142.,17.5,0.));
#568=CARTESIAN_POINT('Origin',(-142.,-17.5,0.));
#569=CARTESIAN_POINT('',(-145.5,-17.5,10.));
#570=CARTESIAN_POINT('Origin',(-142.,-17.5,10.));
#571=CARTESIAN_POINT('',(-145.5,-17.5,0.));
#572=CARTESIAN_POINT('',(-145.5,-17.5,0.));
#573=CARTESIAN_POINT('Origin',(-142.,-17.5,0.));
#574=CARTESIAN_POINT('Origin',(-107.,17.5,0.));
#575=CARTESIAN_POINT('',(-110.5,17.5,10.));
#576=CARTESIAN_POINT('Origin',(-107.,17.5,10.));
#577=CARTESIAN_POINT('',(-110.5,17.5,0.));
#578=CARTESIAN_POINT('',(-110.5,17.5,0.));
#579=CARTESIAN_POINT('Origin',(-107.,17.5,0.));
#580=CARTESIAN_POINT('Origin',(-107.,-17.5,0.));
#581=CARTESIAN_POINT('',(-110.5,-17.5,10.));
#582=CARTESIAN_POINT('Origin',(-107.,-17.5,10.));
#583=CARTESIAN_POINT('',(-110.5,-17.5,0.));
#584=CARTESIAN_POINT('',(-110.5,-17.5,0.));
#585=CARTESIAN_POINT('Origin',(-107.,-17.5,0.));
#586=CARTESIAN_POINT('Origin',(142.,17.5,0.));
#587=CARTESIAN_POINT('',(138.5,17.5,10.));
#588=CARTESIAN_POINT('Origin',(142.,17.5,10.));
#589=CARTESIAN_POINT('',(138.5,17.5,0.));
#590=CARTESIAN_POINT('',(138.5,17.5,0.));
#591=CARTESIAN_POINT('Origin',(142.,17.5,0.));
#592=CARTESIAN_POINT('Origin',(107.,17.5,0.));
#593=CARTESIAN_POINT('',(103.5,17.5,10.));
#594=CARTESIAN_POINT('Origin',(107.,17.5,10.));
#595=CARTESIAN_POINT('',(103.5,17.5,0.));
#596=CARTESIAN_POINT('',(103.5,17.5,0.));
#597=CARTESIAN_POINT('Origin',(107.,17.5,0.));
#598=CARTESIAN_POINT('Origin',(-98.,-4.44089209850063E-15,0.));
#599=CARTESIAN_POINT('',(-101.5,-4.8695184782022E-15,10.));
#600=CARTESIAN_POINT('Origin',(-98.,-4.44089209850063E-15,10.));
#601=CARTESIAN_POINT('',(-101.5,-4.8695184782022E-15,0.));
#602=CARTESIAN_POINT('',(-101.5,-4.8695184782022E-15,0.));
#603=CARTESIAN_POINT('Origin',(-98.,-4.44089209850063E-15,0.));
#604=CARTESIAN_POINT('Origin',(-143.,-4.44089209850063E-15,0.));
#605=CARTESIAN_POINT('',(-146.5,-4.8695184782022E-15,10.));
#606=CARTESIAN_POINT('Origin',(-143.,-4.44089209850063E-15,10.));
#607=CARTESIAN_POINT('',(-146.5,-4.8695184782022E-15,0.));
#608=CARTESIAN_POINT('',(-146.5,-4.8695184782022E-15,0.));
#609=CARTESIAN_POINT('Origin',(-143.,-4.44089209850063E-15,0.));
#610=CARTESIAN_POINT('Origin',(143.,-4.44089209850063E-15,0.));
#611=CARTESIAN_POINT('',(139.5,-4.8695184782022E-15,10.));
#612=CARTESIAN_POINT('Origin',(143.,-4.44089209850063E-15,10.));
#613=CARTESIAN_POINT('',(139.5,-4.8695184782022E-15,0.));
#614=CARTESIAN_POINT('',(139.5,-4.8695184782022E-15,0.));
#615=CARTESIAN_POINT('Origin',(143.,-4.44089209850063E-15,0.));
#616=CARTESIAN_POINT('Origin',(98.,-4.44089209850063E-15,0.));
#617=CARTESIAN_POINT('',(94.5,-4.8695184782022E-15,10.));
#618=CARTESIAN_POINT('Origin',(98.,-4.44089209850063E-15,10.));
#619=CARTESIAN_POINT('',(94.5,-4.8695184782022E-15,0.));
#620=CARTESIAN_POINT('',(94.5,-4.8695184782022E-15,0.));
#621=CARTESIAN_POINT('Origin',(98.,-4.44089209850063E-15,0.));
#622=CARTESIAN_POINT('Origin',(150.,25.,0.));
#623=CARTESIAN_POINT('',(150.,25.,0.));
#624=CARTESIAN_POINT('',(-150.,25.,0.));
#625=CARTESIAN_POINT('',(150.,25.,0.));
#626=CARTESIAN_POINT('',(-150.,25.,10.));
#627=CARTESIAN_POINT('',(-150.,25.,0.));
#628=CARTESIAN_POINT('',(150.,25.,10.));
#629=CARTESIAN_POINT('',(150.,25.,10.));
#630=CARTESIAN_POINT('',(150.,25.,0.));
#631=CARTESIAN_POINT('Origin',(150.,-25.,0.));
#632=CARTESIAN_POINT('',(150.,-25.,0.));
#633=CARTESIAN_POINT('',(150.,-25.,0.));
#634=CARTESIAN_POINT('',(150.,-25.,10.));
#635=CARTESIAN_POINT('',(150.,-25.,10.));
#636=CARTESIAN_POINT('',(150.,-25.,0.));
#637=CARTESIAN_POINT('Origin',(-150.,-25.,0.));
#638=CARTESIAN_POINT('',(-150.,-25.,0.));
#639=CARTESIAN_POINT('',(-150.,-25.,0.));
#640=CARTESIAN_POINT('',(-150.,-25.,10.));
#641=CARTESIAN_POINT('',(-150.,-25.,10.));
#642=CARTESIAN_POINT('',(-150.,-25.,0.));
#643=CARTESIAN_POINT('Origin',(-150.,25.,0.));
#644=CARTESIAN_POINT('',(-150.,25.,0.));
#645=CARTESIAN_POINT('',(-150.,25.,10.));
#646=CARTESIAN_POINT('Origin',(0.,0.,10.));
#647=CARTESIAN_POINT('Origin',(0.,0.,0.));
#648=UNCERTAINTY_MEASURE_WITH_UNIT(LENGTH_MEASURE(0.01),#652,
'DISTANCE_ACCURACY_VALUE',
'Maximum model space distance between geometric entities at asserted c
onnectivities');
#649=UNCERTAINTY_MEASURE_WITH_UNIT(LENGTH_MEASURE(0.01),#652,
'DISTANCE_ACCURACY_VALUE',
'Maximum model space distance between geometric entities at asserted c
onnectivities');
#650=(
GEOMETRIC_REPRESENTATION_CONTEXT(3)
GLOBAL_UNCERTAINTY_ASSIGNED_CONTEXT((#648))
GLOBAL_UNIT_ASSIGNED_CONTEXT((#652,#654,#655))
REPRESENTATION_CONTEXT('','3D')
);
#651=(
GEOMETRIC_REPRESENTATION_CONTEXT(3)
GLOBAL_UNCERTAINTY_ASSIGNED_CONTEXT((#649))
GLOBAL_UNIT_ASSIGNED_CONTEXT((#652,#654,#655))
REPRESENTATION_CONTEXT('','3D')
);
#652=(
LENGTH_UNIT()
NAMED_UNIT(*)
SI_UNIT(.MILLI.,.METRE.)
);
#653=(
LENGTH_UNIT()
NAMED_UNIT(*)
SI_UNIT($,.METRE.)
);
#654=(
NAMED_UNIT(*)
PLANE_ANGLE_UNIT()
SI_UNIT($,.RADIAN.)
);
#655=(
NAMED_UNIT(*)
SI_UNIT($,.STERADIAN.)
SOLID_ANGLE_UNIT()
);
#656=SHAPE_DEFINITION_REPRESENTATION(#657,#658);
#657=PRODUCT_DEFINITION_SHAPE('',$,#660);
#658=SHAPE_REPRESENTATION('',(#396),#650);
#659=PRODUCT_DEFINITION_CONTEXT('part definition',#664,'design');
#660=PRODUCT_DEFINITION('platine rail','platine rail v5',#661,#659);
#661=PRODUCT_DEFINITION_FORMATION('',$,#666);
#662=PRODUCT_RELATED_PRODUCT_CATEGORY('platine rail v5',
'platine rail v5',(#666));
#663=APPLICATION_PROTOCOL_DEFINITION('international standard',
'automotive_design',2009,#664);
#664=APPLICATION_CONTEXT(
'Core Data for Automotive Mechanical Design Process');
#665=PRODUCT_CONTEXT('part definition',#664,'mechanical');
#666=PRODUCT('platine rail','platine rail v5',$,(#665));
#667=PRESENTATION_STYLE_ASSIGNMENT((#668));
#668=SURFACE_STYLE_USAGE(.BOTH.,#669);
#669=SURFACE_SIDE_STYLE('',(#670));
#670=SURFACE_STYLE_FILL_AREA(#671);
#671=FILL_AREA_STYLE('Acier - Satin\X\E9',(#672));
#672=FILL_AREA_STYLE_COLOUR('Acier - Satin\X\E9',#673);
#673=COLOUR_RGB('Acier - Satin\X\E9',0.627450980392157,0.627450980392157,
0.627450980392157);
ENDSEC;
END-ISO-10303-21;
