ISO-10303-21;
HEADER;
FILE_DESCRIPTION(('CATIA V5 STEP Exchange','CAx-IF Rec.Pracs.--- Model Styling and Organization---1.4--- 2014-01-23','CAx-IF Rec.Pracs.---3D Tessellated Data Validation Properties---0.5---2014-09-14'),'2;1');

FILE_NAME('D:\\Documents\\CAO\\Catia V5\\CALE ETRIER.stp','2021-09-26T20:10:29+00:00',('none'),('none'),'CATIA Version 5-6 Release 2019 SP6','CATIA V5 STEP AP242 v1','none');

FILE_SCHEMA(('AP242_MANAGED_MODEL_BASED_3D_ENGINEERING_MIM_LF  {1 0 10303 442 1 1 4}'));

ENDSEC;
DATA;
#5=PRODUCT('CALE ETRIER','','',(#2)) ;
#2=PRODUCT_CONTEXT(' ',#1,'mechanical') ;
#1=APPLICATION_CONTEXT('managed model based 3d engineering') ;
#10=PRODUCT_DEFINITION('',' ',#6,#3) ;
#3=PRODUCT_DEFINITION_CONTEXT('part definition',#1,' ') ;
#11=PRODUCT_DEFINITION_SHAPE(' ',' ',#10) ;
#629=MECHANICAL_DESIGN_GEOMETRIC_PRESENTATION_REPRESENTATION(' ',(#29),#16) ;
#630=MECHANICAL_DESIGN_GEOMETRIC_PRESENTATION_REPRESENTATION(' ',(#626),#16) ;
#7=PRODUCT_CATEGORY('part','specification') ;
#19=SHAPE_REPRESENTATION(' ',(#18),#16) ;
#17=CARTESIAN_POINT(' ',(0.,0.,0.)) ;
#31=CARTESIAN_POINT('Axis2P3D Location',(-65.,2.00470680344,17.)) ;
#36=CARTESIAN_POINT('Line Origine',(-67.594,3.50235340172,17.)) ;
#40=CARTESIAN_POINT('Vertex',(-65.,2.00470680344,17.)) ;
#42=CARTESIAN_POINT('Vertex',(-70.188,5.,17.)) ;
#45=CARTESIAN_POINT('Axis2P3D Location',(-65.,5.,17.)) ;
#49=CARTESIAN_POINT('Vertex',(-59.812,5.,17.)) ;
#52=CARTESIAN_POINT('Line Origine',(-62.406,3.50235340172,17.)) ;
#63=CARTESIAN_POINT('Axis2P3D Location',(-80.,20.,0.)) ;
#68=CARTESIAN_POINT('Line Origine',(-80.,5.,34.)) ;
#72=CARTESIAN_POINT('Vertex',(-80.,20.,34.)) ;
#74=CARTESIAN_POINT('Vertex',(-80.,-10.,34.)) ;
#77=CARTESIAN_POINT('Line Origine',(-80.,20.,17.)) ;
#81=CARTESIAN_POINT('Vertex',(-80.,20.,0.)) ;
#84=CARTESIAN_POINT('Line Origine',(-80.,5.,0.)) ;
#88=CARTESIAN_POINT('Vertex',(-80.,-10.,0.)) ;
#91=CARTESIAN_POINT('Line Origine',(-80.,-10.,17.)) ;
#103=CARTESIAN_POINT('Axis2P3D Location',(-70.,-10.,17.)) ;
#108=CARTESIAN_POINT('Axis2P3D Location',(-70.,-10.,34.)) ;
#112=CARTESIAN_POINT('Vertex',(-70.,-20.,34.)) ;
#115=CARTESIAN_POINT('Axis2P3D Location',(-70.,-10.,0.)) ;
#119=CARTESIAN_POINT('Vertex',(-70.,-20.,0.)) ;
#122=CARTESIAN_POINT('Line Origine',(-70.,-20.,17.)) ;
#134=CARTESIAN_POINT('Axis2P3D Location',(0.,0.,0.)) ;
#139=CARTESIAN_POINT('Axis2P3D Location',(70.,-10.,0.)) ;
#143=CARTESIAN_POINT('Vertex',(70.,-20.,0.)) ;
#145=CARTESIAN_POINT('Vertex',(80.,-10.,0.)) ;
#148=CARTESIAN_POINT('Line Origine',(63.,-20.,0.)) ;
#152=CARTESIAN_POINT('Vertex',(56.,-20.,0.)) ;
#155=CARTESIAN_POINT('Axis2P3D Location',(0.,-70.22,0.)) ;
#159=CARTESIAN_POINT('Vertex',(-56.,-20.,0.)) ;
#162=CARTESIAN_POINT('Line Origine',(-63.,-20.,0.)) ;
#167=CARTESIAN_POINT('Line Origine',(0.,20.,0.)) ;
#171=CARTESIAN_POINT('Vertex',(80.,20.,0.)) ;
#174=CARTESIAN_POINT('Line Origine',(80.,5.,0.)) ;
#189=CARTESIAN_POINT('Axis2P3D Location',(-60.,-5.,0.)) ;
#193=CARTESIAN_POINT('Vertex',(-54.,-5.,0.)) ;
#195=CARTESIAN_POINT('Vertex',(-66.,-5.,0.)) ;
#198=CARTESIAN_POINT('Axis2P3D Location',(-60.,-5.,0.)) ;
#207=CARTESIAN_POINT('Axis2P3D Location',(60.,-5.,0.)) ;
#211=CARTESIAN_POINT('Vertex',(66.,-5.,0.)) ;
#213=CARTESIAN_POINT('Vertex',(54.,-5.,0.)) ;
#216=CARTESIAN_POINT('Axis2P3D Location',(60.,-5.,0.)) ;
#226=CARTESIAN_POINT('Axis2P3D Location',(-56.,-20.,0.)) ;
#231=CARTESIAN_POINT('Line Origine',(-56.,-20.,17.)) ;
#235=CARTESIAN_POINT('Vertex',(-56.,-20.,34.)) ;
#238=CARTESIAN_POINT('Line Origine',(-63.,-20.,34.)) ;
#250=CARTESIAN_POINT('Axis2P3D Location',(-60.,-5.,17.)) ;
#255=CARTESIAN_POINT('Axis2P3D Location',(-60.,-5.,34.)) ;
#259=CARTESIAN_POINT('Vertex',(-66.,-5.,34.)) ;
#261=CARTESIAN_POINT('Vertex',(-54.,-5.,34.)) ;
#264=CARTESIAN_POINT('Line Origine',(-54.,-5.,17.)) ;
#269=CARTESIAN_POINT('Line Origine',(-66.,-5.,17.)) ;
#281=CARTESIAN_POINT('Axis2P3D Location',(-60.,-5.,34.)) ;
#293=CARTESIAN_POINT('Axis2P3D Location',(60.,-5.,17.)) ;
#298=CARTESIAN_POINT('Axis2P3D Location',(60.,-5.,34.)) ;
#302=CARTESIAN_POINT('Vertex',(54.,-5.,34.)) ;
#304=CARTESIAN_POINT('Vertex',(66.,-5.,34.)) ;
#307=CARTESIAN_POINT('Line Origine',(66.,-5.,17.)) ;
#312=CARTESIAN_POINT('Line Origine',(54.,-5.,17.)) ;
#324=CARTESIAN_POINT('Axis2P3D Location',(60.,-5.,34.)) ;
#336=CARTESIAN_POINT('Line Origine',(70.,-20.,17.)) ;
#340=CARTESIAN_POINT('Vertex',(70.,-20.,34.)) ;
#343=CARTESIAN_POINT('Line Origine',(63.,-20.,34.)) ;
#347=CARTESIAN_POINT('Vertex',(56.,-20.,34.)) ;
#350=CARTESIAN_POINT('Line Origine',(56.,-20.,17.)) ;
#362=CARTESIAN_POINT('Axis2P3D Location',(70.,-10.,17.)) ;
#367=CARTESIAN_POINT('Axis2P3D Location',(70.,-10.,34.)) ;
#371=CARTESIAN_POINT('Vertex',(80.,-10.,34.)) ;
#374=CARTESIAN_POINT('Line Origine',(80.,-10.,17.)) ;
#386=CARTESIAN_POINT('Axis2P3D Location',(0.,-70.22,17.)) ;
#391=CARTESIAN_POINT('Axis2P3D Location',(0.,-70.22,34.)) ;
#403=CARTESIAN_POINT('Axis2P3D Location',(80.,-20.,0.)) ;
#408=CARTESIAN_POINT('Line Origine',(80.,20.,17.)) ;
#412=CARTESIAN_POINT('Vertex',(80.,20.,34.)) ;
#415=CARTESIAN_POINT('Line Origine',(80.,5.,34.)) ;
#427=CARTESIAN_POINT('Axis2P3D Location',(0.,0.,34.)) ;
#432=CARTESIAN_POINT('Line Origine',(0.,20.,34.)) ;
#456=CARTESIAN_POINT('Axis2P3D Location',(-80.,20.,0.)) ;
#467=CARTESIAN_POINT('Axis2P3D Location',(65.,20.,17.)) ;
#471=CARTESIAN_POINT('Vertex',(59.812,20.,17.)) ;
#473=CARTESIAN_POINT('Vertex',(70.188,20.,17.)) ;
#476=CARTESIAN_POINT('Axis2P3D Location',(65.,20.,17.)) ;
#485=CARTESIAN_POINT('Axis2P3D Location',(-65.,20.,17.)) ;
#489=CARTESIAN_POINT('Vertex',(-70.188,20.,17.)) ;
#491=CARTESIAN_POINT('Vertex',(-59.812,20.,17.)) ;
#494=CARTESIAN_POINT('Axis2P3D Location',(-65.,20.,17.)) ;
#504=CARTESIAN_POINT('Axis2P3D Location',(-65.,20.,17.)) ;
#509=CARTESIAN_POINT('Line Origine',(-70.188,12.6550000001,17.)) ;
#514=CARTESIAN_POINT('Axis2P3D Location',(-65.,5.,17.)) ;
#519=CARTESIAN_POINT('Line Origine',(-59.812,12.6550000001,17.)) ;
#544=CARTESIAN_POINT('Axis2P3D Location',(65.,2.00470680344,17.)) ;
#549=CARTESIAN_POINT('Line Origine',(62.406,3.50235340172,17.)) ;
#553=CARTESIAN_POINT('Vertex',(65.,2.00470680344,17.)) ;
#555=CARTESIAN_POINT('Vertex',(59.812,5.,17.)) ;
#558=CARTESIAN_POINT('Axis2P3D Location',(65.,5.,17.)) ;
#562=CARTESIAN_POINT('Vertex',(70.188,5.,17.)) ;
#565=CARTESIAN_POINT('Line Origine',(67.594,3.50235340172,17.)) ;
#576=CARTESIAN_POINT('Axis2P3D Location',(65.,5.,17.)) ;
#587=CARTESIAN_POINT('Axis2P3D Location',(65.,20.,17.)) ;
#592=CARTESIAN_POINT('Line Origine',(70.188,12.6550000001,17.)) ;
#597=CARTESIAN_POINT('Line Origine',(59.812,12.6550000001,17.)) ;
#618=CARTESIAN_POINT('Axis2P3D Location',(0.,0.,0.)) ;
#8=PRODUCT_RELATED_PRODUCT_CATEGORY('part',$,(#5)) ;
#15=UNCERTAINTY_MEASURE_WITH_UNIT(LENGTH_MEASURE(0.005),#12,'distance_accuracy_value','CONFUSED CURVE UNCERTAINTY') ;
#29=STYLED_ITEM(' ',(#28),#21) ;
#626=STYLED_ITEM(' ',(#625),#621) ;
#28=PRESENTATION_STYLE_ASSIGNMENT((#27)) ;
#625=PRESENTATION_STYLE_ASSIGNMENT((#624)) ;
#624=CURVE_STYLE(' ',#622,POSITIVE_LENGTH_MEASURE(0.129999995232),#623) ;
#27=SURFACE_STYLE_USAGE(.BOTH.,#26) ;
#26=SURFACE_SIDE_STYLE(' ',(#25)) ;
#25=SURFACE_STYLE_FILL_AREA(#24) ;
#24=FILL_AREA_STYLE(' ',(#23)) ;
#23=FILL_AREA_STYLE_COLOUR(' ',#22) ;
#38=VECTOR('Line Direction',#37,1.) ;
#54=VECTOR('Line Direction',#53,1.) ;
#70=VECTOR('Line Direction',#69,1.) ;
#79=VECTOR('Line Direction',#78,1.) ;
#86=VECTOR('Line Direction',#85,1.) ;
#93=VECTOR('Line Direction',#92,1.) ;
#124=VECTOR('Line Direction',#123,1.) ;
#150=VECTOR('Line Direction',#149,1.) ;
#164=VECTOR('Line Direction',#163,1.) ;
#169=VECTOR('Line Direction',#168,1.) ;
#176=VECTOR('Line Direction',#175,1.) ;
#233=VECTOR('Line Direction',#232,1.) ;
#240=VECTOR('Line Direction',#239,1.) ;
#266=VECTOR('Line Direction',#265,1.) ;
#271=VECTOR('Line Direction',#270,1.) ;
#309=VECTOR('Line Direction',#308,1.) ;
#314=VECTOR('Line Direction',#313,1.) ;
#338=VECTOR('Line Direction',#337,1.) ;
#345=VECTOR('Line Direction',#344,1.) ;
#352=VECTOR('Line Direction',#351,1.) ;
#376=VECTOR('Line Direction',#375,1.) ;
#410=VECTOR('Line Direction',#409,1.) ;
#417=VECTOR('Line Direction',#416,1.) ;
#434=VECTOR('Line Direction',#433,1.) ;
#511=VECTOR('Line Direction',#510,1.) ;
#521=VECTOR('Line Direction',#520,1.) ;
#551=VECTOR('Line Direction',#550,1.) ;
#567=VECTOR('Line Direction',#566,1.) ;
#594=VECTOR('Line Direction',#593,1.) ;
#599=VECTOR('Line Direction',#598,1.) ;
#32=DIRECTION('Axis2P3D Direction',(-0.,1.,0.)) ;
#33=DIRECTION('Axis2P3D XDirection',(1.,0.,0.)) ;
#37=DIRECTION('Vector Direction',(-0.866025403784,0.5,-5.93049402123E-16)) ;
#46=DIRECTION('Axis2P3D Direction',(-0.,1.,0.)) ;
#53=DIRECTION('Vector Direction',(0.866025403784,0.5,1.18609880425E-15)) ;
#64=DIRECTION('Axis2P3D Direction',(-1.,0.,0.)) ;
#65=DIRECTION('Axis2P3D XDirection',(0.,-1.,0.)) ;
#69=DIRECTION('Vector Direction',(0.,-1.,0.)) ;
#78=DIRECTION('Vector Direction',(0.,0.,1.)) ;
#85=DIRECTION('Vector Direction',(0.,-1.,0.)) ;
#92=DIRECTION('Vector Direction',(0.,0.,1.)) ;
#104=DIRECTION('Axis2P3D Direction',(0.,0.,1.)) ;
#105=DIRECTION('Axis2P3D XDirection',(-1.,1.83697019872E-16,0.)) ;
#109=DIRECTION('Axis2P3D Direction',(0.,0.,1.)) ;
#116=DIRECTION('Axis2P3D Direction',(0.,0.,1.)) ;
#123=DIRECTION('Vector Direction',(0.,0.,1.)) ;
#135=DIRECTION('Axis2P3D Direction',(0.,0.,1.)) ;
#136=DIRECTION('Axis2P3D XDirection',(1.,0.,0.)) ;
#140=DIRECTION('Axis2P3D Direction',(0.,0.,1.)) ;
#149=DIRECTION('Vector Direction',(-1.,0.,0.)) ;
#156=DIRECTION('Axis2P3D Direction',(0.,0.,1.)) ;
#163=DIRECTION('Vector Direction',(-1.,0.,0.)) ;
#168=DIRECTION('Vector Direction',(1.,0.,0.)) ;
#175=DIRECTION('Vector Direction',(0.,1.,0.)) ;
#190=DIRECTION('Axis2P3D Direction',(0.,0.,1.)) ;
#199=DIRECTION('Axis2P3D Direction',(0.,0.,1.)) ;
#208=DIRECTION('Axis2P3D Direction',(0.,0.,1.)) ;
#217=DIRECTION('Axis2P3D Direction',(0.,0.,1.)) ;
#227=DIRECTION('Axis2P3D Direction',(0.,1.,-0.)) ;
#228=DIRECTION('Axis2P3D XDirection',(-1.,0.,0.)) ;
#232=DIRECTION('Vector Direction',(0.,0.,1.)) ;
#239=DIRECTION('Vector Direction',(-1.,0.,0.)) ;
#251=DIRECTION('Axis2P3D Direction',(0.,0.,1.)) ;
#252=DIRECTION('Axis2P3D XDirection',(1.,0.,0.)) ;
#256=DIRECTION('Axis2P3D Direction',(0.,0.,1.)) ;
#265=DIRECTION('Vector Direction',(0.,0.,1.)) ;
#270=DIRECTION('Vector Direction',(0.,0.,1.)) ;
#282=DIRECTION('Axis2P3D Direction',(0.,0.,1.)) ;
#294=DIRECTION('Axis2P3D Direction',(0.,0.,1.)) ;
#295=DIRECTION('Axis2P3D XDirection',(1.,0.,0.)) ;
#299=DIRECTION('Axis2P3D Direction',(0.,0.,1.)) ;
#308=DIRECTION('Vector Direction',(0.,0.,1.)) ;
#313=DIRECTION('Vector Direction',(0.,0.,1.)) ;
#325=DIRECTION('Axis2P3D Direction',(0.,0.,1.)) ;
#337=DIRECTION('Vector Direction',(0.,0.,1.)) ;
#344=DIRECTION('Vector Direction',(-1.,0.,0.)) ;
#351=DIRECTION('Vector Direction',(0.,0.,1.)) ;
#363=DIRECTION('Axis2P3D Direction',(0.,0.,1.)) ;
#364=DIRECTION('Axis2P3D XDirection',(-1.83697019872E-16,-1.,-0.)) ;
#368=DIRECTION('Axis2P3D Direction',(0.,0.,1.)) ;
#375=DIRECTION('Vector Direction',(0.,0.,1.)) ;
#387=DIRECTION('Axis2P3D Direction',(0.,0.,1.)) ;
#388=DIRECTION('Axis2P3D XDirection',(0.744482850306,0.667641584685,0.)) ;
#392=DIRECTION('Axis2P3D Direction',(0.,0.,1.)) ;
#404=DIRECTION('Axis2P3D Direction',(1.,0.,0.)) ;
#405=DIRECTION('Axis2P3D XDirection',(0.,1.,0.)) ;
#409=DIRECTION('Vector Direction',(0.,0.,1.)) ;
#416=DIRECTION('Vector Direction',(0.,1.,0.)) ;
#428=DIRECTION('Axis2P3D Direction',(0.,0.,1.)) ;
#429=DIRECTION('Axis2P3D XDirection',(1.,0.,0.)) ;
#433=DIRECTION('Vector Direction',(1.,0.,0.)) ;
#457=DIRECTION('Axis2P3D Direction',(0.,-1.,0.)) ;
#458=DIRECTION('Axis2P3D XDirection',(1.,0.,0.)) ;
#468=DIRECTION('Axis2P3D Direction',(0.,-1.,0.)) ;
#477=DIRECTION('Axis2P3D Direction',(0.,-1.,0.)) ;
#486=DIRECTION('Axis2P3D Direction',(0.,-1.,0.)) ;
#495=DIRECTION('Axis2P3D Direction',(0.,-1.,0.)) ;
#505=DIRECTION('Axis2P3D Direction',(0.,-1.,-0.)) ;
#506=DIRECTION('Axis2P3D XDirection',(1.,0.,0.)) ;
#510=DIRECTION('Vector Direction',(0.,-1.,0.)) ;
#515=DIRECTION('Axis2P3D Direction',(0.,-1.,-0.)) ;
#520=DIRECTION('Vector Direction',(0.,-1.,0.)) ;
#545=DIRECTION('Axis2P3D Direction',(-0.,1.,0.)) ;
#546=DIRECTION('Axis2P3D XDirection',(1.,0.,0.)) ;
#550=DIRECTION('Vector Direction',(-0.866025403784,0.5,-5.93049402123E-16)) ;
#559=DIRECTION('Axis2P3D Direction',(-0.,1.,0.)) ;
#566=DIRECTION('Vector Direction',(0.866025403784,0.5,1.18609880425E-15)) ;
#577=DIRECTION('Axis2P3D Direction',(-0.,1.,0.)) ;
#588=DIRECTION('Axis2P3D Direction',(0.,-1.,-0.)) ;
#589=DIRECTION('Axis2P3D XDirection',(1.,0.,0.)) ;
#593=DIRECTION('Vector Direction',(0.,-1.,0.)) ;
#598=DIRECTION('Vector Direction',(0.,-1.,0.)) ;
#619=DIRECTION('Axis2P3D Direction',(0.,0.,1.)) ;
#620=DIRECTION('Axis2P3D XDirection',(1.,0.,0.)) ;
#617=SHAPE_REPRESENTATION_RELATIONSHIP(' ',' ',#19,#616) ;
#18=AXIS2_PLACEMENT_3D(' ',#17,$,$) ;
#34=AXIS2_PLACEMENT_3D('Cone Axis2P3D',#31,#32,#33) ;
#47=AXIS2_PLACEMENT_3D('Circle Axis2P3D',#45,#46,$) ;
#66=AXIS2_PLACEMENT_3D('Plane Axis2P3D',#63,#64,#65) ;
#106=AXIS2_PLACEMENT_3D('Cylinder Axis2P3D',#103,#104,#105) ;
#110=AXIS2_PLACEMENT_3D('Circle Axis2P3D',#108,#109,$) ;
#117=AXIS2_PLACEMENT_3D('Circle Axis2P3D',#115,#116,$) ;
#137=AXIS2_PLACEMENT_3D('Plane Axis2P3D',#134,#135,#136) ;
#141=AXIS2_PLACEMENT_3D('Circle Axis2P3D',#139,#140,$) ;
#157=AXIS2_PLACEMENT_3D('Circle Axis2P3D',#155,#156,$) ;
#191=AXIS2_PLACEMENT_3D('Circle Axis2P3D',#189,#190,$) ;
#200=AXIS2_PLACEMENT_3D('Circle Axis2P3D',#198,#199,$) ;
#209=AXIS2_PLACEMENT_3D('Circle Axis2P3D',#207,#208,$) ;
#218=AXIS2_PLACEMENT_3D('Circle Axis2P3D',#216,#217,$) ;
#229=AXIS2_PLACEMENT_3D('Plane Axis2P3D',#226,#227,#228) ;
#253=AXIS2_PLACEMENT_3D('Cylinder Axis2P3D',#250,#251,#252) ;
#257=AXIS2_PLACEMENT_3D('Circle Axis2P3D',#255,#256,$) ;
#283=AXIS2_PLACEMENT_3D('Circle Axis2P3D',#281,#282,$) ;
#296=AXIS2_PLACEMENT_3D('Cylinder Axis2P3D',#293,#294,#295) ;
#300=AXIS2_PLACEMENT_3D('Circle Axis2P3D',#298,#299,$) ;
#326=AXIS2_PLACEMENT_3D('Circle Axis2P3D',#324,#325,$) ;
#365=AXIS2_PLACEMENT_3D('Cylinder Axis2P3D',#362,#363,#364) ;
#369=AXIS2_PLACEMENT_3D('Circle Axis2P3D',#367,#368,$) ;
#389=AXIS2_PLACEMENT_3D('Cylinder Axis2P3D',#386,#387,#388) ;
#393=AXIS2_PLACEMENT_3D('Circle Axis2P3D',#391,#392,$) ;
#406=AXIS2_PLACEMENT_3D('Plane Axis2P3D',#403,#404,#405) ;
#430=AXIS2_PLACEMENT_3D('Plane Axis2P3D',#427,#428,#429) ;
#459=AXIS2_PLACEMENT_3D('Plane Axis2P3D',#456,#457,#458) ;
#469=AXIS2_PLACEMENT_3D('Circle Axis2P3D',#467,#468,$) ;
#478=AXIS2_PLACEMENT_3D('Circle Axis2P3D',#476,#477,$) ;
#487=AXIS2_PLACEMENT_3D('Circle Axis2P3D',#485,#486,$) ;
#496=AXIS2_PLACEMENT_3D('Circle Axis2P3D',#494,#495,$) ;
#507=AXIS2_PLACEMENT_3D('Cylinder Axis2P3D',#504,#505,#506) ;
#516=AXIS2_PLACEMENT_3D('Circle Axis2P3D',#514,#515,$) ;
#547=AXIS2_PLACEMENT_3D('Cone Axis2P3D',#544,#545,#546) ;
#560=AXIS2_PLACEMENT_3D('Circle Axis2P3D',#558,#559,$) ;
#578=AXIS2_PLACEMENT_3D('Circle Axis2P3D',#576,#577,$) ;
#590=AXIS2_PLACEMENT_3D('Cylinder Axis2P3D',#587,#588,#589) ;
#621=AXIS2_PLACEMENT_3D('Rep\X2\00E8\X0\re.1',#618,#619,#620) ;
#39=LINE('Line',#36,#38) ;
#55=LINE('Line',#52,#54) ;
#71=LINE('Line',#68,#70) ;
#80=LINE('Line',#77,#79) ;
#87=LINE('Line',#84,#86) ;
#94=LINE('Line',#91,#93) ;
#125=LINE('Line',#122,#124) ;
#151=LINE('Line',#148,#150) ;
#165=LINE('Line',#162,#164) ;
#170=LINE('Line',#167,#169) ;
#177=LINE('Line',#174,#176) ;
#234=LINE('Line',#231,#233) ;
#241=LINE('Line',#238,#240) ;
#267=LINE('Line',#264,#266) ;
#272=LINE('Line',#269,#271) ;
#310=LINE('Line',#307,#309) ;
#315=LINE('Line',#312,#314) ;
#339=LINE('Line',#336,#338) ;
#346=LINE('Line',#343,#345) ;
#353=LINE('Line',#350,#352) ;
#377=LINE('Line',#374,#376) ;
#411=LINE('Line',#408,#410) ;
#418=LINE('Line',#415,#417) ;
#435=LINE('Line',#432,#434) ;
#512=LINE('Line',#509,#511) ;
#522=LINE('Line',#519,#521) ;
#552=LINE('Line',#549,#551) ;
#568=LINE('Line',#565,#567) ;
#595=LINE('Line',#592,#594) ;
#600=LINE('Line',#597,#599) ;
#48=CIRCLE('generated circle',#47,5.188) ;
#111=CIRCLE('generated circle',#110,10.) ;
#118=CIRCLE('generated circle',#117,10.) ;
#142=CIRCLE('generated circle',#141,10.) ;
#158=CIRCLE('generated circle',#157,75.22) ;
#192=CIRCLE('generated circle',#191,6.) ;
#201=CIRCLE('generated circle',#200,6.) ;
#210=CIRCLE('generated circle',#209,6.) ;
#219=CIRCLE('generated circle',#218,6.) ;
#258=CIRCLE('generated circle',#257,6.) ;
#284=CIRCLE('generated circle',#283,6.) ;
#301=CIRCLE('generated circle',#300,6.) ;
#327=CIRCLE('generated circle',#326,6.) ;
#370=CIRCLE('generated circle',#369,10.) ;
#394=CIRCLE('generated circle',#393,75.22) ;
#470=CIRCLE('generated circle',#469,5.188) ;
#479=CIRCLE('generated circle',#478,5.188) ;
#488=CIRCLE('generated circle',#487,5.188) ;
#497=CIRCLE('generated circle',#496,5.188) ;
#517=CIRCLE('generated circle',#516,5.188) ;
#561=CIRCLE('generated circle',#560,5.188) ;
#579=CIRCLE('generated circle',#578,5.188) ;
#67=PLANE('',#66) ;
#138=PLANE('',#137) ;
#230=PLANE('',#229) ;
#407=PLANE('',#406) ;
#431=PLANE('',#430) ;
#460=PLANE('',#459) ;
#107=CYLINDRICAL_SURFACE('generated cylinder',#106,10.) ;
#254=CYLINDRICAL_SURFACE('generated cylinder',#253,6.) ;
#297=CYLINDRICAL_SURFACE('generated cylinder',#296,6.) ;
#366=CYLINDRICAL_SURFACE('generated cylinder',#365,10.) ;
#390=CYLINDRICAL_SURFACE('generated cylinder',#389,75.22) ;
#508=CYLINDRICAL_SURFACE('generated cylinder',#507,5.188) ;
#591=CYLINDRICAL_SURFACE('generated cylinder',#590,5.188) ;
#35=CONICAL_SURFACE('Cone',#34,0.,1.0471975512) ;
#548=CONICAL_SURFACE('Cone',#547,0.,1.0471975512) ;
#206=FACE_BOUND('',#203,.T.) ;
#224=FACE_BOUND('',#221,.T.) ;
#450=FACE_BOUND('',#447,.T.) ;
#454=FACE_BOUND('',#451,.T.) ;
#484=FACE_BOUND('',#481,.T.) ;
#502=FACE_BOUND('',#499,.T.) ;
#44=EDGE_CURVE('',#41,#43,#39,.T.) ;
#51=EDGE_CURVE('',#50,#43,#48,.F.) ;
#56=EDGE_CURVE('',#41,#50,#55,.T.) ;
#76=EDGE_CURVE('',#73,#75,#71,.T.) ;
#83=EDGE_CURVE('',#82,#73,#80,.T.) ;
#90=EDGE_CURVE('',#82,#89,#87,.T.) ;
#95=EDGE_CURVE('',#89,#75,#94,.T.) ;
#114=EDGE_CURVE('',#113,#75,#111,.F.) ;
#121=EDGE_CURVE('',#89,#120,#118,.T.) ;
#126=EDGE_CURVE('',#120,#113,#125,.T.) ;
#147=EDGE_CURVE('',#144,#146,#142,.T.) ;
#154=EDGE_CURVE('',#153,#144,#151,.F.) ;
#161=EDGE_CURVE('',#160,#153,#158,.F.) ;
#166=EDGE_CURVE('',#120,#160,#165,.F.) ;
#173=EDGE_CURVE('',#172,#82,#170,.F.) ;
#178=EDGE_CURVE('',#146,#172,#177,.T.) ;
#197=EDGE_CURVE('',#194,#196,#192,.T.) ;
#202=EDGE_CURVE('',#196,#194,#201,.T.) ;
#215=EDGE_CURVE('',#212,#214,#210,.T.) ;
#220=EDGE_CURVE('',#214,#212,#219,.T.) ;
#237=EDGE_CURVE('',#160,#236,#234,.T.) ;
#242=EDGE_CURVE('',#113,#236,#241,.F.) ;
#263=EDGE_CURVE('',#260,#262,#258,.T.) ;
#268=EDGE_CURVE('',#194,#262,#267,.T.) ;
#273=EDGE_CURVE('',#196,#260,#272,.T.) ;
#285=EDGE_CURVE('',#262,#260,#284,.T.) ;
#306=EDGE_CURVE('',#303,#305,#301,.T.) ;
#311=EDGE_CURVE('',#212,#305,#310,.T.) ;
#316=EDGE_CURVE('',#214,#303,#315,.T.) ;
#328=EDGE_CURVE('',#305,#303,#327,.T.) ;
#342=EDGE_CURVE('',#144,#341,#339,.T.) ;
#349=EDGE_CURVE('',#348,#341,#346,.F.) ;
#354=EDGE_CURVE('',#153,#348,#353,.T.) ;
#373=EDGE_CURVE('',#372,#341,#370,.F.) ;
#378=EDGE_CURVE('',#146,#372,#377,.T.) ;
#395=EDGE_CURVE('',#236,#348,#394,.F.) ;
#414=EDGE_CURVE('',#172,#413,#411,.T.) ;
#419=EDGE_CURVE('',#372,#413,#418,.T.) ;
#436=EDGE_CURVE('',#413,#73,#435,.F.) ;
#475=EDGE_CURVE('',#472,#474,#470,.T.) ;
#480=EDGE_CURVE('',#474,#472,#479,.T.) ;
#493=EDGE_CURVE('',#490,#492,#488,.T.) ;
#498=EDGE_CURVE('',#492,#490,#497,.T.) ;
#513=EDGE_CURVE('',#43,#490,#512,.F.) ;
#518=EDGE_CURVE('',#43,#50,#517,.T.) ;
#523=EDGE_CURVE('',#50,#492,#522,.F.) ;
#557=EDGE_CURVE('',#554,#556,#552,.T.) ;
#564=EDGE_CURVE('',#563,#556,#561,.F.) ;
#569=EDGE_CURVE('',#554,#563,#568,.T.) ;
#580=EDGE_CURVE('',#556,#563,#579,.F.) ;
#596=EDGE_CURVE('',#563,#474,#595,.F.) ;
#601=EDGE_CURVE('',#556,#472,#600,.F.) ;
#30=CLOSED_SHELL('Closed Shell',(#62,#102,#133,#225,#249,#280,#292,#323,#335,#361,#385,#402,#426,#455,#503,#530,#537,#543,#575,#586,#608,#615)) ;
#58=ORIENTED_EDGE('',*,*,#44,.T.) ;
#59=ORIENTED_EDGE('',*,*,#51,.F.) ;
#60=ORIENTED_EDGE('',*,*,#56,.F.) ;
#97=ORIENTED_EDGE('',*,*,#76,.F.) ;
#98=ORIENTED_EDGE('',*,*,#83,.F.) ;
#99=ORIENTED_EDGE('',*,*,#90,.T.) ;
#100=ORIENTED_EDGE('',*,*,#95,.T.) ;
#128=ORIENTED_EDGE('',*,*,#114,.T.) ;
#129=ORIENTED_EDGE('',*,*,#95,.F.) ;
#130=ORIENTED_EDGE('',*,*,#121,.T.) ;
#131=ORIENTED_EDGE('',*,*,#126,.T.) ;
#180=ORIENTED_EDGE('',*,*,#147,.F.) ;
#181=ORIENTED_EDGE('',*,*,#154,.F.) ;
#182=ORIENTED_EDGE('',*,*,#161,.F.) ;
#183=ORIENTED_EDGE('',*,*,#166,.F.) ;
#184=ORIENTED_EDGE('',*,*,#121,.F.) ;
#185=ORIENTED_EDGE('',*,*,#90,.F.) ;
#186=ORIENTED_EDGE('',*,*,#173,.F.) ;
#187=ORIENTED_EDGE('',*,*,#178,.F.) ;
#204=ORIENTED_EDGE('',*,*,#197,.T.) ;
#205=ORIENTED_EDGE('',*,*,#202,.T.) ;
#222=ORIENTED_EDGE('',*,*,#215,.T.) ;
#223=ORIENTED_EDGE('',*,*,#220,.T.) ;
#244=ORIENTED_EDGE('',*,*,#126,.F.) ;
#245=ORIENTED_EDGE('',*,*,#166,.T.) ;
#246=ORIENTED_EDGE('',*,*,#237,.T.) ;
#247=ORIENTED_EDGE('',*,*,#242,.F.) ;
#275=ORIENTED_EDGE('',*,*,#263,.T.) ;
#276=ORIENTED_EDGE('',*,*,#268,.F.) ;
#277=ORIENTED_EDGE('',*,*,#202,.F.) ;
#278=ORIENTED_EDGE('',*,*,#273,.T.) ;
#287=ORIENTED_EDGE('',*,*,#285,.T.) ;
#288=ORIENTED_EDGE('',*,*,#273,.F.) ;
#289=ORIENTED_EDGE('',*,*,#197,.F.) ;
#290=ORIENTED_EDGE('',*,*,#268,.T.) ;
#318=ORIENTED_EDGE('',*,*,#306,.T.) ;
#319=ORIENTED_EDGE('',*,*,#311,.F.) ;
#320=ORIENTED_EDGE('',*,*,#220,.F.) ;
#321=ORIENTED_EDGE('',*,*,#316,.T.) ;
#330=ORIENTED_EDGE('',*,*,#328,.T.) ;
#331=ORIENTED_EDGE('',*,*,#316,.F.) ;
#332=ORIENTED_EDGE('',*,*,#215,.F.) ;
#333=ORIENTED_EDGE('',*,*,#311,.T.) ;
#356=ORIENTED_EDGE('',*,*,#342,.T.) ;
#357=ORIENTED_EDGE('',*,*,#349,.F.) ;
#358=ORIENTED_EDGE('',*,*,#354,.F.) ;
#359=ORIENTED_EDGE('',*,*,#154,.T.) ;
#380=ORIENTED_EDGE('',*,*,#373,.T.) ;
#381=ORIENTED_EDGE('',*,*,#342,.F.) ;
#382=ORIENTED_EDGE('',*,*,#147,.T.) ;
#383=ORIENTED_EDGE('',*,*,#378,.T.) ;
#397=ORIENTED_EDGE('',*,*,#237,.F.) ;
#398=ORIENTED_EDGE('',*,*,#161,.T.) ;
#399=ORIENTED_EDGE('',*,*,#354,.T.) ;
#400=ORIENTED_EDGE('',*,*,#395,.F.) ;
#421=ORIENTED_EDGE('',*,*,#178,.T.) ;
#422=ORIENTED_EDGE('',*,*,#414,.T.) ;
#423=ORIENTED_EDGE('',*,*,#419,.F.) ;
#424=ORIENTED_EDGE('',*,*,#378,.F.) ;
#438=ORIENTED_EDGE('',*,*,#419,.T.) ;
#439=ORIENTED_EDGE('',*,*,#436,.T.) ;
#440=ORIENTED_EDGE('',*,*,#76,.T.) ;
#441=ORIENTED_EDGE('',*,*,#114,.F.) ;
#442=ORIENTED_EDGE('',*,*,#242,.T.) ;
#443=ORIENTED_EDGE('',*,*,#395,.T.) ;
#444=ORIENTED_EDGE('',*,*,#349,.T.) ;
#445=ORIENTED_EDGE('',*,*,#373,.F.) ;
#448=ORIENTED_EDGE('',*,*,#263,.F.) ;
#449=ORIENTED_EDGE('',*,*,#285,.F.) ;
#452=ORIENTED_EDGE('',*,*,#306,.F.) ;
#453=ORIENTED_EDGE('',*,*,#328,.F.) ;
#462=ORIENTED_EDGE('',*,*,#414,.F.) ;
#463=ORIENTED_EDGE('',*,*,#173,.T.) ;
#464=ORIENTED_EDGE('',*,*,#83,.T.) ;
#465=ORIENTED_EDGE('',*,*,#436,.F.) ;
#482=ORIENTED_EDGE('',*,*,#475,.T.) ;
#483=ORIENTED_EDGE('',*,*,#480,.T.) ;
#500=ORIENTED_EDGE('',*,*,#493,.T.) ;
#501=ORIENTED_EDGE('',*,*,#498,.T.) ;
#525=ORIENTED_EDGE('',*,*,#493,.F.) ;
#526=ORIENTED_EDGE('',*,*,#513,.F.) ;
#527=ORIENTED_EDGE('',*,*,#518,.T.) ;
#528=ORIENTED_EDGE('',*,*,#523,.T.) ;
#532=ORIENTED_EDGE('',*,*,#498,.F.) ;
#533=ORIENTED_EDGE('',*,*,#523,.F.) ;
#534=ORIENTED_EDGE('',*,*,#51,.T.) ;
#535=ORIENTED_EDGE('',*,*,#513,.T.) ;
#539=ORIENTED_EDGE('',*,*,#56,.T.) ;
#540=ORIENTED_EDGE('',*,*,#518,.F.) ;
#541=ORIENTED_EDGE('',*,*,#44,.F.) ;
#571=ORIENTED_EDGE('',*,*,#557,.T.) ;
#572=ORIENTED_EDGE('',*,*,#564,.F.) ;
#573=ORIENTED_EDGE('',*,*,#569,.F.) ;
#582=ORIENTED_EDGE('',*,*,#569,.T.) ;
#583=ORIENTED_EDGE('',*,*,#580,.F.) ;
#584=ORIENTED_EDGE('',*,*,#557,.F.) ;
#603=ORIENTED_EDGE('',*,*,#480,.F.) ;
#604=ORIENTED_EDGE('',*,*,#596,.F.) ;
#605=ORIENTED_EDGE('',*,*,#564,.T.) ;
#606=ORIENTED_EDGE('',*,*,#601,.T.) ;
#610=ORIENTED_EDGE('',*,*,#475,.F.) ;
#611=ORIENTED_EDGE('',*,*,#601,.F.) ;
#612=ORIENTED_EDGE('',*,*,#580,.T.) ;
#613=ORIENTED_EDGE('',*,*,#596,.T.) ;
#627=CONSTRUCTIVE_GEOMETRY_REPRESENTATION('supplemental geometry',(#621),#16) ;
#57=EDGE_LOOP('',(#58,#59,#60)) ;
#96=EDGE_LOOP('',(#97,#98,#99,#100)) ;
#127=EDGE_LOOP('',(#128,#129,#130,#131)) ;
#179=EDGE_LOOP('',(#180,#181,#182,#183,#184,#185,#186,#187)) ;
#203=EDGE_LOOP('',(#204,#205)) ;
#221=EDGE_LOOP('',(#222,#223)) ;
#243=EDGE_LOOP('',(#244,#245,#246,#247)) ;
#274=EDGE_LOOP('',(#275,#276,#277,#278)) ;
#286=EDGE_LOOP('',(#287,#288,#289,#290)) ;
#317=EDGE_LOOP('',(#318,#319,#320,#321)) ;
#329=EDGE_LOOP('',(#330,#331,#332,#333)) ;
#355=EDGE_LOOP('',(#356,#357,#358,#359)) ;
#379=EDGE_LOOP('',(#380,#381,#382,#383)) ;
#396=EDGE_LOOP('',(#397,#398,#399,#400)) ;
#420=EDGE_LOOP('',(#421,#422,#423,#424)) ;
#437=EDGE_LOOP('',(#438,#439,#440,#441,#442,#443,#444,#445)) ;
#447=EDGE_LOOP('',(#448,#449)) ;
#451=EDGE_LOOP('',(#452,#453)) ;
#461=EDGE_LOOP('',(#462,#463,#464,#465)) ;
#481=EDGE_LOOP('',(#482,#483)) ;
#499=EDGE_LOOP('',(#500,#501)) ;
#524=EDGE_LOOP('',(#525,#526,#527,#528)) ;
#531=EDGE_LOOP('',(#532,#533,#534,#535)) ;
#538=EDGE_LOOP('',(#539,#540,#541)) ;
#570=EDGE_LOOP('',(#571,#572,#573)) ;
#581=EDGE_LOOP('',(#582,#583,#584)) ;
#602=EDGE_LOOP('',(#603,#604,#605,#606)) ;
#609=EDGE_LOOP('',(#610,#611,#612,#613)) ;
#21=MANIFOLD_SOLID_BREP('Corps principal',#30) ;
#41=VERTEX_POINT('',#40) ;
#43=VERTEX_POINT('',#42) ;
#50=VERTEX_POINT('',#49) ;
#73=VERTEX_POINT('',#72) ;
#75=VERTEX_POINT('',#74) ;
#82=VERTEX_POINT('',#81) ;
#89=VERTEX_POINT('',#88) ;
#113=VERTEX_POINT('',#112) ;
#120=VERTEX_POINT('',#119) ;
#144=VERTEX_POINT('',#143) ;
#146=VERTEX_POINT('',#145) ;
#153=VERTEX_POINT('',#152) ;
#160=VERTEX_POINT('',#159) ;
#172=VERTEX_POINT('',#171) ;
#194=VERTEX_POINT('',#193) ;
#196=VERTEX_POINT('',#195) ;
#212=VERTEX_POINT('',#211) ;
#214=VERTEX_POINT('',#213) ;
#236=VERTEX_POINT('',#235) ;
#260=VERTEX_POINT('',#259) ;
#262=VERTEX_POINT('',#261) ;
#303=VERTEX_POINT('',#302) ;
#305=VERTEX_POINT('',#304) ;
#341=VERTEX_POINT('',#340) ;
#348=VERTEX_POINT('',#347) ;
#372=VERTEX_POINT('',#371) ;
#413=VERTEX_POINT('',#412) ;
#472=VERTEX_POINT('',#471) ;
#474=VERTEX_POINT('',#473) ;
#490=VERTEX_POINT('',#489) ;
#492=VERTEX_POINT('',#491) ;
#554=VERTEX_POINT('',#553) ;
#556=VERTEX_POINT('',#555) ;
#563=VERTEX_POINT('',#562) ;
#616=ADVANCED_BREP_SHAPE_REPRESENTATION('NONE',(#21),#16) ;
#62=ADVANCED_FACE('Corps principal',(#61),#35,.F.) ;
#102=ADVANCED_FACE('Corps principal',(#101),#67,.T.) ;
#133=ADVANCED_FACE('Corps principal',(#132),#107,.T.) ;
#225=ADVANCED_FACE('Corps principal',(#188,#206,#224),#138,.F.) ;
#249=ADVANCED_FACE('Corps principal',(#248),#230,.F.) ;
#280=ADVANCED_FACE('Corps principal',(#279),#254,.F.) ;
#292=ADVANCED_FACE('Corps principal',(#291),#254,.F.) ;
#323=ADVANCED_FACE('Corps principal',(#322),#297,.F.) ;
#335=ADVANCED_FACE('Corps principal',(#334),#297,.F.) ;
#361=ADVANCED_FACE('Corps principal',(#360),#230,.F.) ;
#385=ADVANCED_FACE('Corps principal',(#384),#366,.T.) ;
#402=ADVANCED_FACE('Corps principal',(#401),#390,.F.) ;
#426=ADVANCED_FACE('Corps principal',(#425),#407,.T.) ;
#455=ADVANCED_FACE('Corps principal',(#446,#450,#454),#431,.T.) ;
#503=ADVANCED_FACE('Corps principal',(#466,#484,#502),#460,.F.) ;
#530=ADVANCED_FACE('Corps principal',(#529),#508,.F.) ;
#537=ADVANCED_FACE('Corps principal',(#536),#508,.F.) ;
#543=ADVANCED_FACE('Corps principal',(#542),#35,.F.) ;
#575=ADVANCED_FACE('Corps principal',(#574),#548,.F.) ;
#586=ADVANCED_FACE('Corps principal',(#585),#548,.F.) ;
#608=ADVANCED_FACE('Corps principal',(#607),#591,.F.) ;
#615=ADVANCED_FACE('Corps principal',(#614),#591,.F.) ;
#4=APPLICATION_PROTOCOL_DEFINITION('international standard','ap242_managed_model_based_3d_engineering',2014,#1) ;
#22=COLOUR_RGB('Colour',0.823529411765,0.823529411765,1.) ;
#628=CONSTRUCTIVE_GEOMETRY_REPRESENTATION_RELATIONSHIP('supplemental geometry','',#19,#627) ;
#623=DRAUGHTING_PRE_DEFINED_COLOUR('white') ;
#622=DRAUGHTING_PRE_DEFINED_CURVE_FONT('continuous') ;
#61=FACE_OUTER_BOUND('',#57,.T.) ;
#101=FACE_OUTER_BOUND('',#96,.T.) ;
#132=FACE_OUTER_BOUND('',#127,.T.) ;
#188=FACE_OUTER_BOUND('',#179,.T.) ;
#248=FACE_OUTER_BOUND('',#243,.T.) ;
#279=FACE_OUTER_BOUND('',#274,.T.) ;
#291=FACE_OUTER_BOUND('',#286,.T.) ;
#322=FACE_OUTER_BOUND('',#317,.T.) ;
#334=FACE_OUTER_BOUND('',#329,.T.) ;
#360=FACE_OUTER_BOUND('',#355,.T.) ;
#384=FACE_OUTER_BOUND('',#379,.T.) ;
#401=FACE_OUTER_BOUND('',#396,.T.) ;
#425=FACE_OUTER_BOUND('',#420,.T.) ;
#446=FACE_OUTER_BOUND('',#437,.T.) ;
#466=FACE_OUTER_BOUND('',#461,.T.) ;
#529=FACE_OUTER_BOUND('',#524,.T.) ;
#536=FACE_OUTER_BOUND('',#531,.T.) ;
#542=FACE_OUTER_BOUND('',#538,.T.) ;
#574=FACE_OUTER_BOUND('',#570,.T.) ;
#585=FACE_OUTER_BOUND('',#581,.T.) ;
#607=FACE_OUTER_BOUND('',#602,.T.) ;
#614=FACE_OUTER_BOUND('',#609,.T.) ;
#9=PRODUCT_CATEGORY_RELATIONSHIP(' ',' ',#7,#8) ;
#6=PRODUCT_DEFINITION_FORMATION_WITH_SPECIFIED_SOURCE('',' ',#5,.NOT_KNOWN.) ;
#20=SHAPE_DEFINITION_REPRESENTATION(#11,#19) ;
#12=(LENGTH_UNIT()NAMED_UNIT(*)SI_UNIT(.MILLI.,.METRE.)) ;
#13=(NAMED_UNIT(*)PLANE_ANGLE_UNIT()SI_UNIT($,.RADIAN.)) ;
#14=(NAMED_UNIT(*)SI_UNIT($,.STERADIAN.)SOLID_ANGLE_UNIT()) ;
#16=(GEOMETRIC_REPRESENTATION_CONTEXT(3)GLOBAL_UNCERTAINTY_ASSIGNED_CONTEXT((#15))GLOBAL_UNIT_ASSIGNED_CONTEXT((#12,#13,#14))REPRESENTATION_CONTEXT(' ',' ')) ;
ENDSEC;
END-ISO-10303-21;
