ISO-10303-21;
HEADER;
/* Generated by software containing ST-Developer
 * from STEP Tools, Inc. (www.steptools.com) 
 */

FILE_DESCRIPTION(
/* description */ (''),
/* implementation_level */ '2;1');

FILE_NAME(
/* name */ 'C:/Users/Joshy/Downloads/Turntable Flange v5.step',
/* time_stamp */ '2021-08-31T09:21:21-04:00',
/* author */ (''),
/* organization */ (''),
/* preprocessor_version */ 'ST-DEVELOPER v18.1',
/* originating_system */ 'Autodesk Translation Framework v10.10.0.1391',

/* authorisation */ '');

FILE_SCHEMA (('AUTOMOTIVE_DESIGN { 1 0 10303 214 3 1 1 }'));
ENDSEC;

DATA;
#10=MECHANICAL_DESIGN_GEOMETRIC_PRESENTATION_REPRESENTATION('',(#13),#654);
#11=SHAPE_REPRESENTATION_RELATIONSHIP('SRR','None',#664,#12);
#12=ADVANCED_BREP_SHAPE_REPRESENTATION('',(#14),#653);
#13=STYLED_ITEM('',(#673),#14);
#14=MANIFOLD_SOLID_BREP('Body1',#374);
#15=FACE_BOUND('',#82,.T.);
#16=FACE_BOUND('',#83,.T.);
#17=FACE_BOUND('',#84,.T.);
#18=FACE_BOUND('',#85,.T.);
#19=FACE_BOUND('',#86,.T.);
#20=FACE_BOUND('',#87,.T.);
#21=FACE_BOUND('',#88,.T.);
#22=FACE_BOUND('',#89,.T.);
#23=FACE_BOUND('',#90,.T.);
#24=FACE_BOUND('',#91,.T.);
#25=FACE_BOUND('',#92,.T.);
#26=FACE_BOUND('',#93,.T.);
#27=FACE_BOUND('',#95,.T.);
#28=FACE_BOUND('',#96,.T.);
#29=FACE_BOUND('',#97,.T.);
#30=FACE_BOUND('',#98,.T.);
#31=FACE_BOUND('',#99,.T.);
#32=FACE_BOUND('',#100,.T.);
#33=FACE_BOUND('',#101,.T.);
#34=FACE_BOUND('',#102,.T.);
#35=FACE_BOUND('',#103,.T.);
#36=FACE_BOUND('',#104,.T.);
#37=FACE_BOUND('',#105,.T.);
#38=FACE_BOUND('',#106,.T.);
#39=PLANE('',#435);
#40=PLANE('',#436);
#41=CONICAL_SURFACE('',#412,0.19325,0.715584993317675);
#42=CONICAL_SURFACE('',#417,0.19325,0.715584993317675);
#43=CONICAL_SURFACE('',#422,0.19325,0.715584993317675);
#44=CONICAL_SURFACE('',#427,0.19325,0.715584993317675);
#45=FACE_OUTER_BOUND('',#64,.T.);
#46=FACE_OUTER_BOUND('',#65,.T.);
#47=FACE_OUTER_BOUND('',#66,.T.);
#48=FACE_OUTER_BOUND('',#67,.T.);
#49=FACE_OUTER_BOUND('',#68,.T.);
#50=FACE_OUTER_BOUND('',#69,.T.);
#51=FACE_OUTER_BOUND('',#70,.T.);
#52=FACE_OUTER_BOUND('',#71,.T.);
#53=FACE_OUTER_BOUND('',#72,.T.);
#54=FACE_OUTER_BOUND('',#73,.T.);
#55=FACE_OUTER_BOUND('',#74,.T.);
#56=FACE_OUTER_BOUND('',#75,.T.);
#57=FACE_OUTER_BOUND('',#76,.T.);
#58=FACE_OUTER_BOUND('',#77,.T.);
#59=FACE_OUTER_BOUND('',#78,.T.);
#60=FACE_OUTER_BOUND('',#79,.T.);
#61=FACE_OUTER_BOUND('',#80,.T.);
#62=FACE_OUTER_BOUND('',#81,.T.);
#63=FACE_OUTER_BOUND('',#94,.T.);
#64=EDGE_LOOP('',(#248,#249,#250,#251));
#65=EDGE_LOOP('',(#252,#253,#254,#255));
#66=EDGE_LOOP('',(#256,#257,#258,#259));
#67=EDGE_LOOP('',(#260,#261,#262,#263));
#68=EDGE_LOOP('',(#264,#265,#266,#267));
#69=EDGE_LOOP('',(#268,#269,#270,#271));
#70=EDGE_LOOP('',(#272,#273,#274,#275));
#71=EDGE_LOOP('',(#276,#277,#278,#279));
#72=EDGE_LOOP('',(#280,#281,#282,#283));
#73=EDGE_LOOP('',(#284,#285,#286,#287));
#74=EDGE_LOOP('',(#288,#289,#290,#291));
#75=EDGE_LOOP('',(#292,#293,#294,#295));
#76=EDGE_LOOP('',(#296,#297,#298,#299));
#77=EDGE_LOOP('',(#300,#301,#302,#303));
#78=EDGE_LOOP('',(#304,#305,#306,#307));
#79=EDGE_LOOP('',(#308,#309,#310,#311));
#80=EDGE_LOOP('',(#312,#313,#314,#315));
#81=EDGE_LOOP('',(#316));
#82=EDGE_LOOP('',(#317));
#83=EDGE_LOOP('',(#318));
#84=EDGE_LOOP('',(#319));
#85=EDGE_LOOP('',(#320));
#86=EDGE_LOOP('',(#321));
#87=EDGE_LOOP('',(#322));
#88=EDGE_LOOP('',(#323));
#89=EDGE_LOOP('',(#324));
#90=EDGE_LOOP('',(#325));
#91=EDGE_LOOP('',(#326));
#92=EDGE_LOOP('',(#327));
#93=EDGE_LOOP('',(#328));
#94=EDGE_LOOP('',(#329));
#95=EDGE_LOOP('',(#330));
#96=EDGE_LOOP('',(#331));
#97=EDGE_LOOP('',(#332));
#98=EDGE_LOOP('',(#333));
#99=EDGE_LOOP('',(#334));
#100=EDGE_LOOP('',(#335));
#101=EDGE_LOOP('',(#336));
#102=EDGE_LOOP('',(#337));
#103=EDGE_LOOP('',(#338));
#104=EDGE_LOOP('',(#339));
#105=EDGE_LOOP('',(#340));
#106=EDGE_LOOP('',(#341));
#107=LINE('',#559,#124);
#108=LINE('',#565,#125);
#109=LINE('',#571,#126);
#110=LINE('',#577,#127);
#111=LINE('',#583,#128);
#112=LINE('',#589,#129);
#113=LINE('',#595,#130);
#114=LINE('',#601,#131);
#115=LINE('',#607,#132);
#116=LINE('',#611,#133);
#117=LINE('',#617,#134);
#118=LINE('',#621,#135);
#119=LINE('',#627,#136);
#120=LINE('',#631,#137);
#121=LINE('',#637,#138);
#122=LINE('',#641,#139);
#123=LINE('',#647,#140);
#124=VECTOR('',#443,0.133);
#125=VECTOR('',#450,0.133);
#126=VECTOR('',#457,0.133);
#127=VECTOR('',#464,0.133);
#128=VECTOR('',#471,0.133);
#129=VECTOR('',#478,0.133);
#130=VECTOR('',#485,0.133);
#131=VECTOR('',#492,0.133);
#132=VECTOR('',#499,0.19325);
#133=VECTOR('',#504,0.133);
#134=VECTOR('',#511,0.19325);
#135=VECTOR('',#516,0.133);
#136=VECTOR('',#523,0.19325);
#137=VECTOR('',#528,0.133);
#138=VECTOR('',#535,0.19325);
#139=VECTOR('',#540,0.133);
#140=VECTOR('',#547,6.);
#141=CIRCLE('',#389,0.133);
#142=CIRCLE('',#390,0.133);
#143=CIRCLE('',#392,0.133);
#144=CIRCLE('',#393,0.133);
#145=CIRCLE('',#395,0.133);
#146=CIRCLE('',#396,0.133);
#147=CIRCLE('',#398,0.133);
#148=CIRCLE('',#399,0.133);
#149=CIRCLE('',#401,0.133);
#150=CIRCLE('',#402,0.133);
#151=CIRCLE('',#404,0.133);
#152=CIRCLE('',#405,0.133);
#153=CIRCLE('',#407,0.133);
#154=CIRCLE('',#408,0.133);
#155=CIRCLE('',#410,0.133);
#156=CIRCLE('',#411,0.133);
#157=CIRCLE('',#413,0.2535);
#158=CIRCLE('',#414,0.133);
#159=CIRCLE('',#416,0.133);
#160=CIRCLE('',#418,0.2535);
#161=CIRCLE('',#419,0.133);
#162=CIRCLE('',#421,0.133);
#163=CIRCLE('',#423,0.2535);
#164=CIRCLE('',#424,0.133);
#165=CIRCLE('',#426,0.133);
#166=CIRCLE('',#428,0.2535);
#167=CIRCLE('',#429,0.133);
#168=CIRCLE('',#431,0.133);
#169=CIRCLE('',#433,6.);
#170=CIRCLE('',#434,6.);
#171=VERTEX_POINT('',#556);
#172=VERTEX_POINT('',#558);
#173=VERTEX_POINT('',#562);
#174=VERTEX_POINT('',#564);
#175=VERTEX_POINT('',#568);
#176=VERTEX_POINT('',#570);
#177=VERTEX_POINT('',#574);
#178=VERTEX_POINT('',#576);
#179=VERTEX_POINT('',#580);
#180=VERTEX_POINT('',#582);
#181=VERTEX_POINT('',#586);
#182=VERTEX_POINT('',#588);
#183=VERTEX_POINT('',#592);
#184=VERTEX_POINT('',#594);
#185=VERTEX_POINT('',#598);
#186=VERTEX_POINT('',#600);
#187=VERTEX_POINT('',#604);
#188=VERTEX_POINT('',#606);
#189=VERTEX_POINT('',#610);
#190=VERTEX_POINT('',#614);
#191=VERTEX_POINT('',#616);
#192=VERTEX_POINT('',#620);
#193=VERTEX_POINT('',#624);
#194=VERTEX_POINT('',#626);
#195=VERTEX_POINT('',#630);
#196=VERTEX_POINT('',#634);
#197=VERTEX_POINT('',#636);
#198=VERTEX_POINT('',#640);
#199=VERTEX_POINT('',#644);
#200=VERTEX_POINT('',#646);
#201=EDGE_CURVE('',#171,#171,#141,.T.);
#202=EDGE_CURVE('',#171,#172,#107,.T.);
#203=EDGE_CURVE('',#172,#172,#142,.T.);
#204=EDGE_CURVE('',#173,#173,#143,.T.);
#205=EDGE_CURVE('',#173,#174,#108,.T.);
#206=EDGE_CURVE('',#174,#174,#144,.T.);
#207=EDGE_CURVE('',#175,#175,#145,.T.);
#208=EDGE_CURVE('',#175,#176,#109,.T.);
#209=EDGE_CURVE('',#176,#176,#146,.T.);
#210=EDGE_CURVE('',#177,#177,#147,.T.);
#211=EDGE_CURVE('',#177,#178,#110,.T.);
#212=EDGE_CURVE('',#178,#178,#148,.T.);
#213=EDGE_CURVE('',#179,#179,#149,.T.);
#214=EDGE_CURVE('',#179,#180,#111,.T.);
#215=EDGE_CURVE('',#180,#180,#150,.T.);
#216=EDGE_CURVE('',#181,#181,#151,.T.);
#217=EDGE_CURVE('',#181,#182,#112,.T.);
#218=EDGE_CURVE('',#182,#182,#152,.T.);
#219=EDGE_CURVE('',#183,#183,#153,.T.);
#220=EDGE_CURVE('',#183,#184,#113,.T.);
#221=EDGE_CURVE('',#184,#184,#154,.T.);
#222=EDGE_CURVE('',#185,#185,#155,.T.);
#223=EDGE_CURVE('',#185,#186,#114,.T.);
#224=EDGE_CURVE('',#186,#186,#156,.T.);
#225=EDGE_CURVE('',#187,#187,#157,.T.);
#226=EDGE_CURVE('',#187,#188,#115,.T.);
#227=EDGE_CURVE('',#188,#188,#158,.T.);
#228=EDGE_CURVE('',#188,#189,#116,.T.);
#229=EDGE_CURVE('',#189,#189,#159,.T.);
#230=EDGE_CURVE('',#190,#190,#160,.T.);
#231=EDGE_CURVE('',#190,#191,#117,.T.);
#232=EDGE_CURVE('',#191,#191,#161,.T.);
#233=EDGE_CURVE('',#191,#192,#118,.T.);
#234=EDGE_CURVE('',#192,#192,#162,.T.);
#235=EDGE_CURVE('',#193,#193,#163,.T.);
#236=EDGE_CURVE('',#193,#194,#119,.T.);
#237=EDGE_CURVE('',#194,#194,#164,.T.);
#238=EDGE_CURVE('',#194,#195,#120,.T.);
#239=EDGE_CURVE('',#195,#195,#165,.T.);
#240=EDGE_CURVE('',#196,#196,#166,.T.);
#241=EDGE_CURVE('',#196,#197,#121,.T.);
#242=EDGE_CURVE('',#197,#197,#167,.T.);
#243=EDGE_CURVE('',#197,#198,#122,.T.);
#244=EDGE_CURVE('',#198,#198,#168,.T.);
#245=EDGE_CURVE('',#199,#199,#169,.T.);
#246=EDGE_CURVE('',#199,#200,#123,.T.);
#247=EDGE_CURVE('',#200,#200,#170,.T.);
#248=ORIENTED_EDGE('',*,*,#201,.F.);
#249=ORIENTED_EDGE('',*,*,#202,.T.);
#250=ORIENTED_EDGE('',*,*,#203,.F.);
#251=ORIENTED_EDGE('',*,*,#202,.F.);
#252=ORIENTED_EDGE('',*,*,#204,.F.);
#253=ORIENTED_EDGE('',*,*,#205,.T.);
#254=ORIENTED_EDGE('',*,*,#206,.F.);
#255=ORIENTED_EDGE('',*,*,#205,.F.);
#256=ORIENTED_EDGE('',*,*,#207,.F.);
#257=ORIENTED_EDGE('',*,*,#208,.T.);
#258=ORIENTED_EDGE('',*,*,#209,.F.);
#259=ORIENTED_EDGE('',*,*,#208,.F.);
#260=ORIENTED_EDGE('',*,*,#210,.F.);
#261=ORIENTED_EDGE('',*,*,#211,.T.);
#262=ORIENTED_EDGE('',*,*,#212,.F.);
#263=ORIENTED_EDGE('',*,*,#211,.F.);
#264=ORIENTED_EDGE('',*,*,#213,.F.);
#265=ORIENTED_EDGE('',*,*,#214,.T.);
#266=ORIENTED_EDGE('',*,*,#215,.F.);
#267=ORIENTED_EDGE('',*,*,#214,.F.);
#268=ORIENTED_EDGE('',*,*,#216,.F.);
#269=ORIENTED_EDGE('',*,*,#217,.T.);
#270=ORIENTED_EDGE('',*,*,#218,.F.);
#271=ORIENTED_EDGE('',*,*,#217,.F.);
#272=ORIENTED_EDGE('',*,*,#219,.F.);
#273=ORIENTED_EDGE('',*,*,#220,.T.);
#274=ORIENTED_EDGE('',*,*,#221,.F.);
#275=ORIENTED_EDGE('',*,*,#220,.F.);
#276=ORIENTED_EDGE('',*,*,#222,.F.);
#277=ORIENTED_EDGE('',*,*,#223,.T.);
#278=ORIENTED_EDGE('',*,*,#224,.F.);
#279=ORIENTED_EDGE('',*,*,#223,.F.);
#280=ORIENTED_EDGE('',*,*,#225,.F.);
#281=ORIENTED_EDGE('',*,*,#226,.T.);
#282=ORIENTED_EDGE('',*,*,#227,.T.);
#283=ORIENTED_EDGE('',*,*,#226,.F.);
#284=ORIENTED_EDGE('',*,*,#227,.F.);
#285=ORIENTED_EDGE('',*,*,#228,.T.);
#286=ORIENTED_EDGE('',*,*,#229,.F.);
#287=ORIENTED_EDGE('',*,*,#228,.F.);
#288=ORIENTED_EDGE('',*,*,#230,.F.);
#289=ORIENTED_EDGE('',*,*,#231,.T.);
#290=ORIENTED_EDGE('',*,*,#232,.T.);
#291=ORIENTED_EDGE('',*,*,#231,.F.);
#292=ORIENTED_EDGE('',*,*,#232,.F.);
#293=ORIENTED_EDGE('',*,*,#233,.T.);
#294=ORIENTED_EDGE('',*,*,#234,.F.);
#295=ORIENTED_EDGE('',*,*,#233,.F.);
#296=ORIENTED_EDGE('',*,*,#235,.F.);
#297=ORIENTED_EDGE('',*,*,#236,.T.);
#298=ORIENTED_EDGE('',*,*,#237,.T.);
#299=ORIENTED_EDGE('',*,*,#236,.F.);
#300=ORIENTED_EDGE('',*,*,#237,.F.);
#301=ORIENTED_EDGE('',*,*,#238,.T.);
#302=ORIENTED_EDGE('',*,*,#239,.F.);
#303=ORIENTED_EDGE('',*,*,#238,.F.);
#304=ORIENTED_EDGE('',*,*,#240,.F.);
#305=ORIENTED_EDGE('',*,*,#241,.T.);
#306=ORIENTED_EDGE('',*,*,#242,.T.);
#307=ORIENTED_EDGE('',*,*,#241,.F.);
#308=ORIENTED_EDGE('',*,*,#242,.F.);
#309=ORIENTED_EDGE('',*,*,#243,.T.);
#310=ORIENTED_EDGE('',*,*,#244,.F.);
#311=ORIENTED_EDGE('',*,*,#243,.F.);
#312=ORIENTED_EDGE('',*,*,#245,.F.);
#313=ORIENTED_EDGE('',*,*,#246,.T.);
#314=ORIENTED_EDGE('',*,*,#247,.T.);
#315=ORIENTED_EDGE('',*,*,#246,.F.);
#316=ORIENTED_EDGE('',*,*,#245,.T.);
#317=ORIENTED_EDGE('',*,*,#203,.T.);
#318=ORIENTED_EDGE('',*,*,#206,.T.);
#319=ORIENTED_EDGE('',*,*,#209,.T.);
#320=ORIENTED_EDGE('',*,*,#212,.T.);
#321=ORIENTED_EDGE('',*,*,#215,.T.);
#322=ORIENTED_EDGE('',*,*,#218,.T.);
#323=ORIENTED_EDGE('',*,*,#221,.T.);
#324=ORIENTED_EDGE('',*,*,#224,.T.);
#325=ORIENTED_EDGE('',*,*,#229,.T.);
#326=ORIENTED_EDGE('',*,*,#234,.T.);
#327=ORIENTED_EDGE('',*,*,#239,.T.);
#328=ORIENTED_EDGE('',*,*,#244,.T.);
#329=ORIENTED_EDGE('',*,*,#247,.F.);
#330=ORIENTED_EDGE('',*,*,#201,.T.);
#331=ORIENTED_EDGE('',*,*,#204,.T.);
#332=ORIENTED_EDGE('',*,*,#207,.T.);
#333=ORIENTED_EDGE('',*,*,#210,.T.);
#334=ORIENTED_EDGE('',*,*,#213,.T.);
#335=ORIENTED_EDGE('',*,*,#216,.T.);
#336=ORIENTED_EDGE('',*,*,#219,.T.);
#337=ORIENTED_EDGE('',*,*,#222,.T.);
#338=ORIENTED_EDGE('',*,*,#225,.T.);
#339=ORIENTED_EDGE('',*,*,#230,.T.);
#340=ORIENTED_EDGE('',*,*,#235,.T.);
#341=ORIENTED_EDGE('',*,*,#240,.T.);
#342=CYLINDRICAL_SURFACE('',#388,0.133);
#343=CYLINDRICAL_SURFACE('',#391,0.133);
#344=CYLINDRICAL_SURFACE('',#394,0.133);
#345=CYLINDRICAL_SURFACE('',#397,0.133);
#346=CYLINDRICAL_SURFACE('',#400,0.133);
#347=CYLINDRICAL_SURFACE('',#403,0.133);
#348=CYLINDRICAL_SURFACE('',#406,0.133);
#349=CYLINDRICAL_SURFACE('',#409,0.133);
#350=CYLINDRICAL_SURFACE('',#415,0.133);
#351=CYLINDRICAL_SURFACE('',#420,0.133);
#352=CYLINDRICAL_SURFACE('',#425,0.133);
#353=CYLINDRICAL_SURFACE('',#430,0.133);
#354=CYLINDRICAL_SURFACE('',#432,6.);
#355=ADVANCED_FACE('',(#45),#342,.F.);
#356=ADVANCED_FACE('',(#46),#343,.F.);
#357=ADVANCED_FACE('',(#47),#344,.F.);
#358=ADVANCED_FACE('',(#48),#345,.F.);
#359=ADVANCED_FACE('',(#49),#346,.F.);
#360=ADVANCED_FACE('',(#50),#347,.F.);
#361=ADVANCED_FACE('',(#51),#348,.F.);
#362=ADVANCED_FACE('',(#52),#349,.F.);
#363=ADVANCED_FACE('',(#53),#41,.F.);
#364=ADVANCED_FACE('',(#54),#350,.F.);
#365=ADVANCED_FACE('',(#55),#42,.F.);
#366=ADVANCED_FACE('',(#56),#351,.F.);
#367=ADVANCED_FACE('',(#57),#43,.F.);
#368=ADVANCED_FACE('',(#58),#352,.F.);
#369=ADVANCED_FACE('',(#59),#44,.F.);
#370=ADVANCED_FACE('',(#60),#353,.F.);
#371=ADVANCED_FACE('',(#61),#354,.T.);
#372=ADVANCED_FACE('',(#62,#15,#16,#17,#18,#19,#20,#21,#22,#23,#24,#25,
#26),#39,.T.);
#373=ADVANCED_FACE('',(#63,#27,#28,#29,#30,#31,#32,#33,#34,#35,#36,#37,
#38),#40,.F.);
#374=CLOSED_SHELL('',(#355,#356,#357,#358,#359,#360,#361,#362,#363,#364,
#365,#366,#367,#368,#369,#370,#371,#372,#373));
#375=DERIVED_UNIT_ELEMENT(#377,1.);
#376=DERIVED_UNIT_ELEMENT(#658,-3.);
#377=(
MASS_UNIT()
NAMED_UNIT(*)
SI_UNIT(.KILO.,.GRAM.)
);
#378=DERIVED_UNIT((#375,#376));
#379=MEASURE_REPRESENTATION_ITEM('density measure',
POSITIVE_RATIO_MEASURE(2700.),#378);
#380=PROPERTY_DEFINITION_REPRESENTATION(#385,#382);
#381=PROPERTY_DEFINITION_REPRESENTATION(#386,#383);
#382=REPRESENTATION('material name',(#384),#653);
#383=REPRESENTATION('density',(#379),#653);
#384=DESCRIPTIVE_REPRESENTATION_ITEM('Aluminum 6061','Aluminum 6061');
#385=PROPERTY_DEFINITION('material property','material name',#666);
#386=PROPERTY_DEFINITION('material property','density of part',#666);
#387=AXIS2_PLACEMENT_3D('placement',#554,#437,#438);
#388=AXIS2_PLACEMENT_3D('',#555,#439,#440);
#389=AXIS2_PLACEMENT_3D('',#557,#441,#442);
#390=AXIS2_PLACEMENT_3D('',#560,#444,#445);
#391=AXIS2_PLACEMENT_3D('',#561,#446,#447);
#392=AXIS2_PLACEMENT_3D('',#563,#448,#449);
#393=AXIS2_PLACEMENT_3D('',#566,#451,#452);
#394=AXIS2_PLACEMENT_3D('',#567,#453,#454);
#395=AXIS2_PLACEMENT_3D('',#569,#455,#456);
#396=AXIS2_PLACEMENT_3D('',#572,#458,#459);
#397=AXIS2_PLACEMENT_3D('',#573,#460,#461);
#398=AXIS2_PLACEMENT_3D('',#575,#462,#463);
#399=AXIS2_PLACEMENT_3D('',#578,#465,#466);
#400=AXIS2_PLACEMENT_3D('',#579,#467,#468);
#401=AXIS2_PLACEMENT_3D('',#581,#469,#470);
#402=AXIS2_PLACEMENT_3D('',#584,#472,#473);
#403=AXIS2_PLACEMENT_3D('',#585,#474,#475);
#404=AXIS2_PLACEMENT_3D('',#587,#476,#477);
#405=AXIS2_PLACEMENT_3D('',#590,#479,#480);
#406=AXIS2_PLACEMENT_3D('',#591,#481,#482);
#407=AXIS2_PLACEMENT_3D('',#593,#483,#484);
#408=AXIS2_PLACEMENT_3D('',#596,#486,#487);
#409=AXIS2_PLACEMENT_3D('',#597,#488,#489);
#410=AXIS2_PLACEMENT_3D('',#599,#490,#491);
#411=AXIS2_PLACEMENT_3D('',#602,#493,#494);
#412=AXIS2_PLACEMENT_3D('',#603,#495,#496);
#413=AXIS2_PLACEMENT_3D('',#605,#497,#498);
#414=AXIS2_PLACEMENT_3D('',#608,#500,#501);
#415=AXIS2_PLACEMENT_3D('',#609,#502,#503);
#416=AXIS2_PLACEMENT_3D('',#612,#505,#506);
#417=AXIS2_PLACEMENT_3D('',#613,#507,#508);
#418=AXIS2_PLACEMENT_3D('',#615,#509,#510);
#419=AXIS2_PLACEMENT_3D('',#618,#512,#513);
#420=AXIS2_PLACEMENT_3D('',#619,#514,#515);
#421=AXIS2_PLACEMENT_3D('',#622,#517,#518);
#422=AXIS2_PLACEMENT_3D('',#623,#519,#520);
#423=AXIS2_PLACEMENT_3D('',#625,#521,#522);
#424=AXIS2_PLACEMENT_3D('',#628,#524,#525);
#425=AXIS2_PLACEMENT_3D('',#629,#526,#527);
#426=AXIS2_PLACEMENT_3D('',#632,#529,#530);
#427=AXIS2_PLACEMENT_3D('',#633,#531,#532);
#428=AXIS2_PLACEMENT_3D('',#635,#533,#534);
#429=AXIS2_PLACEMENT_3D('',#638,#536,#537);
#430=AXIS2_PLACEMENT_3D('',#639,#538,#539);
#431=AXIS2_PLACEMENT_3D('',#642,#541,#542);
#432=AXIS2_PLACEMENT_3D('',#643,#543,#544);
#433=AXIS2_PLACEMENT_3D('',#645,#545,#546);
#434=AXIS2_PLACEMENT_3D('',#648,#548,#549);
#435=AXIS2_PLACEMENT_3D('',#649,#550,#551);
#436=AXIS2_PLACEMENT_3D('',#650,#552,#553);
#437=DIRECTION('axis',(0.,0.,1.));
#438=DIRECTION('refdir',(1.,0.,0.));
#439=DIRECTION('center_axis',(0.,0.,1.));
#440=DIRECTION('ref_axis',(-1.,0.,0.));
#441=DIRECTION('center_axis',(0.,0.,1.));
#442=DIRECTION('ref_axis',(-1.,0.,0.));
#443=DIRECTION('',(0.,0.,1.));
#444=DIRECTION('center_axis',(0.,0.,-1.));
#445=DIRECTION('ref_axis',(-1.,0.,0.));
#446=DIRECTION('center_axis',(0.,0.,1.));
#447=DIRECTION('ref_axis',(-1.,0.,0.));
#448=DIRECTION('center_axis',(0.,0.,1.));
#449=DIRECTION('ref_axis',(-1.,0.,0.));
#450=DIRECTION('',(0.,0.,1.));
#451=DIRECTION('center_axis',(0.,0.,-1.));
#452=DIRECTION('ref_axis',(-1.,0.,0.));
#453=DIRECTION('center_axis',(0.,0.,1.));
#454=DIRECTION('ref_axis',(-1.,0.,0.));
#455=DIRECTION('center_axis',(0.,0.,1.));
#456=DIRECTION('ref_axis',(-1.,0.,0.));
#457=DIRECTION('',(0.,0.,1.));
#458=DIRECTION('center_axis',(0.,0.,-1.));
#459=DIRECTION('ref_axis',(-1.,0.,0.));
#460=DIRECTION('center_axis',(0.,0.,1.));
#461=DIRECTION('ref_axis',(-1.,0.,0.));
#462=DIRECTION('center_axis',(0.,0.,1.));
#463=DIRECTION('ref_axis',(-1.,0.,0.));
#464=DIRECTION('',(0.,0.,1.));
#465=DIRECTION('center_axis',(0.,0.,-1.));
#466=DIRECTION('ref_axis',(-1.,0.,0.));
#467=DIRECTION('center_axis',(0.,0.,1.));
#468=DIRECTION('ref_axis',(-1.,0.,0.));
#469=DIRECTION('center_axis',(0.,0.,1.));
#470=DIRECTION('ref_axis',(-1.,0.,0.));
#471=DIRECTION('',(0.,0.,1.));
#472=DIRECTION('center_axis',(0.,0.,-1.));
#473=DIRECTION('ref_axis',(-1.,0.,0.));
#474=DIRECTION('center_axis',(0.,0.,1.));
#475=DIRECTION('ref_axis',(-1.,0.,0.));
#476=DIRECTION('center_axis',(0.,0.,1.));
#477=DIRECTION('ref_axis',(-1.,0.,0.));
#478=DIRECTION('',(0.,0.,1.));
#479=DIRECTION('center_axis',(0.,0.,-1.));
#480=DIRECTION('ref_axis',(-1.,0.,0.));
#481=DIRECTION('center_axis',(0.,0.,1.));
#482=DIRECTION('ref_axis',(-1.,0.,0.));
#483=DIRECTION('center_axis',(0.,0.,1.));
#484=DIRECTION('ref_axis',(-1.,0.,0.));
#485=DIRECTION('',(0.,0.,1.));
#486=DIRECTION('center_axis',(0.,0.,-1.));
#487=DIRECTION('ref_axis',(-1.,0.,0.));
#488=DIRECTION('center_axis',(0.,0.,1.));
#489=DIRECTION('ref_axis',(-1.,0.,0.));
#490=DIRECTION('center_axis',(0.,0.,1.));
#491=DIRECTION('ref_axis',(-1.,0.,0.));
#492=DIRECTION('',(0.,0.,1.));
#493=DIRECTION('center_axis',(0.,0.,-1.));
#494=DIRECTION('ref_axis',(-1.,0.,0.));
#495=DIRECTION('center_axis',(0.,0.,-1.));
#496=DIRECTION('ref_axis',(-1.,0.,0.));
#497=DIRECTION('center_axis',(0.,0.,1.));
#498=DIRECTION('ref_axis',(-1.,0.,0.));
#499=DIRECTION('',(-0.656059028990507,-8.03440589904945E-17,0.754709580222772));
#500=DIRECTION('center_axis',(0.,0.,1.));
#501=DIRECTION('ref_axis',(-1.,0.,0.));
#502=DIRECTION('center_axis',(0.,0.,1.));
#503=DIRECTION('ref_axis',(-1.,0.,0.));
#504=DIRECTION('',(0.,0.,1.));
#505=DIRECTION('center_axis',(0.,0.,-1.));
#506=DIRECTION('ref_axis',(-1.,0.,0.));
#507=DIRECTION('center_axis',(0.,0.,-1.));
#508=DIRECTION('ref_axis',(-1.,0.,0.));
#509=DIRECTION('center_axis',(0.,0.,1.));
#510=DIRECTION('ref_axis',(-1.,0.,0.));
#511=DIRECTION('',(-0.656059028990507,-8.03440589904945E-17,0.754709580222772));
#512=DIRECTION('center_axis',(0.,0.,1.));
#513=DIRECTION('ref_axis',(-1.,0.,0.));
#514=DIRECTION('center_axis',(0.,0.,1.));
#515=DIRECTION('ref_axis',(-1.,0.,0.));
#516=DIRECTION('',(0.,0.,1.));
#517=DIRECTION('center_axis',(0.,0.,-1.));
#518=DIRECTION('ref_axis',(-1.,0.,0.));
#519=DIRECTION('center_axis',(0.,0.,-1.));
#520=DIRECTION('ref_axis',(-1.,0.,0.));
#521=DIRECTION('center_axis',(0.,0.,1.));
#522=DIRECTION('ref_axis',(-1.,0.,0.));
#523=DIRECTION('',(-0.656059028990507,-8.03440589904945E-17,0.754709580222772));
#524=DIRECTION('center_axis',(0.,0.,1.));
#525=DIRECTION('ref_axis',(-1.,0.,0.));
#526=DIRECTION('center_axis',(0.,0.,1.));
#527=DIRECTION('ref_axis',(-1.,0.,0.));
#528=DIRECTION('',(0.,0.,1.));
#529=DIRECTION('center_axis',(0.,0.,-1.));
#530=DIRECTION('ref_axis',(-1.,0.,0.));
#531=DIRECTION('center_axis',(0.,0.,-1.));
#532=DIRECTION('ref_axis',(-1.,0.,0.));
#533=DIRECTION('center_axis',(0.,0.,1.));
#534=DIRECTION('ref_axis',(-1.,0.,0.));
#535=DIRECTION('',(-0.656059028990507,-8.03440589904945E-17,0.754709580222772));
#536=DIRECTION('center_axis',(0.,0.,1.));
#537=DIRECTION('ref_axis',(-1.,0.,0.));
#538=DIRECTION('center_axis',(0.,0.,1.));
#539=DIRECTION('ref_axis',(-1.,0.,0.));
#540=DIRECTION('',(0.,0.,1.));
#541=DIRECTION('center_axis',(0.,0.,-1.));
#542=DIRECTION('ref_axis',(-1.,0.,0.));
#543=DIRECTION('center_axis',(0.,0.,1.));
#544=DIRECTION('ref_axis',(1.,0.,0.));
#545=DIRECTION('center_axis',(0.,0.,1.));
#546=DIRECTION('ref_axis',(1.,0.,0.));
#547=DIRECTION('',(0.,0.,-1.));
#548=DIRECTION('center_axis',(0.,0.,1.));
#549=DIRECTION('ref_axis',(1.,0.,0.));
#550=DIRECTION('center_axis',(0.,0.,1.));
#551=DIRECTION('ref_axis',(1.,0.,0.));
#552=DIRECTION('center_axis',(0.,0.,1.));
#553=DIRECTION('ref_axis',(1.,0.,0.));
#554=CARTESIAN_POINT('',(0.,0.,0.));
#555=CARTESIAN_POINT('Origin',(4.06586399182265,4.06586399182265,0.125));
#556=CARTESIAN_POINT('',(4.19886399182265,4.06586399182265,0.));
#557=CARTESIAN_POINT('Origin',(4.06586399182265,4.06586399182265,0.));
#558=CARTESIAN_POINT('',(4.19886399182265,4.06586399182265,0.25));
#559=CARTESIAN_POINT('',(4.19886399182265,4.06586399182265,0.125));
#560=CARTESIAN_POINT('Origin',(4.06586399182265,4.06586399182265,0.25));
#561=CARTESIAN_POINT('Origin',(-4.06586399182265,4.06586399182265,0.125));
#562=CARTESIAN_POINT('',(-3.93286399182265,4.06586399182265,0.));
#563=CARTESIAN_POINT('Origin',(-4.06586399182265,4.06586399182265,0.));
#564=CARTESIAN_POINT('',(-3.93286399182265,4.06586399182265,0.25));
#565=CARTESIAN_POINT('',(-3.93286399182265,4.06586399182265,0.125));
#566=CARTESIAN_POINT('Origin',(-4.06586399182265,4.06586399182265,0.25));
#567=CARTESIAN_POINT('Origin',(-4.06586399182265,-4.06586399182265,0.125));
#568=CARTESIAN_POINT('',(-3.93286399182265,-4.06586399182265,0.));
#569=CARTESIAN_POINT('Origin',(-4.06586399182265,-4.06586399182265,0.));
#570=CARTESIAN_POINT('',(-3.93286399182265,-4.06586399182265,0.25));
#571=CARTESIAN_POINT('',(-3.93286399182265,-4.06586399182265,0.125));
#572=CARTESIAN_POINT('Origin',(-4.06586399182265,-4.06586399182265,0.25));
#573=CARTESIAN_POINT('Origin',(4.06586399182265,-4.06586399182265,0.125));
#574=CARTESIAN_POINT('',(4.19886399182265,-4.06586399182265,0.));
#575=CARTESIAN_POINT('Origin',(4.06586399182265,-4.06586399182265,0.));
#576=CARTESIAN_POINT('',(4.19886399182265,-4.06586399182265,0.25));
#577=CARTESIAN_POINT('',(4.19886399182265,-4.06586399182265,0.125));
#578=CARTESIAN_POINT('Origin',(4.06586399182265,-4.06586399182265,0.25));
#579=CARTESIAN_POINT('Origin',(-6.73555739531044E-16,-5.75,0.125));
#580=CARTESIAN_POINT('',(0.132999999999999,-5.75,0.));
#581=CARTESIAN_POINT('Origin',(-6.73555739531044E-16,-5.75,0.));
#582=CARTESIAN_POINT('',(0.132999999999999,-5.75,0.25));
#583=CARTESIAN_POINT('',(0.132999999999999,-5.75,0.125));
#584=CARTESIAN_POINT('Origin',(-6.73555739531044E-16,-5.75,0.25));
#585=CARTESIAN_POINT('Origin',(-5.75,3.36777869765522E-16,0.125));
#586=CARTESIAN_POINT('',(-5.617,3.53065672194182E-16,0.));
#587=CARTESIAN_POINT('Origin',(-5.75,3.36777869765522E-16,0.));
#588=CARTESIAN_POINT('',(-5.617,3.53065672194182E-16,0.25));
#589=CARTESIAN_POINT('',(-5.617,3.53065672194182E-16,0.125));
#590=CARTESIAN_POINT('Origin',(-5.75,3.36777869765522E-16,0.25));
#591=CARTESIAN_POINT('Origin',(0.,5.75,0.125));
#592=CARTESIAN_POINT('',(0.133,5.75,0.));
#593=CARTESIAN_POINT('Origin',(0.,5.75,0.));
#594=CARTESIAN_POINT('',(0.133,5.75,0.25));
#595=CARTESIAN_POINT('',(0.133,5.75,0.125));
#596=CARTESIAN_POINT('Origin',(0.,5.75,0.25));
#597=CARTESIAN_POINT('Origin',(5.75,-1.01033360929657E-15,0.125));
#598=CARTESIAN_POINT('',(5.883,-9.94045806867906E-16,0.));
#599=CARTESIAN_POINT('Origin',(5.75,-1.01033360929657E-15,0.));
#600=CARTESIAN_POINT('',(5.883,-9.94045806867906E-16,0.25));
#601=CARTESIAN_POINT('',(5.883,-9.94045806867906E-16,0.125));
#602=CARTESIAN_POINT('Origin',(5.75,-1.01033360929657E-15,0.25));
#603=CARTESIAN_POINT('Origin',(-0.5,-0.5,0.0693096965350658));
#604=CARTESIAN_POINT('',(-0.2465,-0.5,0.));
#605=CARTESIAN_POINT('Origin',(-0.5,-0.5,0.));
#606=CARTESIAN_POINT('',(-0.367,-0.5,0.138619393070132));
#607=CARTESIAN_POINT('',(-0.30675,-0.5,0.0693096965350658));
#608=CARTESIAN_POINT('Origin',(-0.5,-0.5,0.138619393070132));
#609=CARTESIAN_POINT('Origin',(-0.5,-0.5,0.1375));
#610=CARTESIAN_POINT('',(-0.367,-0.5,0.25));
#611=CARTESIAN_POINT('',(-0.367,-0.5,0.1375));
#612=CARTESIAN_POINT('Origin',(-0.5,-0.5,0.25));
#613=CARTESIAN_POINT('Origin',(0.5,0.5,0.0693096965350658));
#614=CARTESIAN_POINT('',(0.7535,0.5,-2.18547839493141E-17));
#615=CARTESIAN_POINT('Origin',(0.5,0.5,0.));
#616=CARTESIAN_POINT('',(0.633,0.5,0.138619393070132));
#617=CARTESIAN_POINT('',(0.69325,0.5,0.0693096965350658));
#618=CARTESIAN_POINT('Origin',(0.5,0.5,0.138619393070132));
#619=CARTESIAN_POINT('Origin',(0.5,0.5,0.1375));
#620=CARTESIAN_POINT('',(0.633,0.5,0.25));
#621=CARTESIAN_POINT('',(0.633,0.5,0.1375));
#622=CARTESIAN_POINT('Origin',(0.5,0.5,0.25));
#623=CARTESIAN_POINT('Origin',(0.5,-0.5,0.0693096965350658));
#624=CARTESIAN_POINT('',(0.7535,-0.5,-2.18547839493141E-17));
#625=CARTESIAN_POINT('Origin',(0.5,-0.5,0.));
#626=CARTESIAN_POINT('',(0.633,-0.5,0.138619393070132));
#627=CARTESIAN_POINT('',(0.69325,-0.5,0.0693096965350658));
#628=CARTESIAN_POINT('Origin',(0.5,-0.5,0.138619393070132));
#629=CARTESIAN_POINT('Origin',(0.5,-0.5,0.1375));
#630=CARTESIAN_POINT('',(0.633,-0.5,0.25));
#631=CARTESIAN_POINT('',(0.633,-0.5,0.1375));
#632=CARTESIAN_POINT('Origin',(0.5,-0.5,0.25));
#633=CARTESIAN_POINT('Origin',(-0.5,0.5,0.0693096965350658));
#634=CARTESIAN_POINT('',(-0.2465,0.5,0.));
#635=CARTESIAN_POINT('Origin',(-0.5,0.5,0.));
#636=CARTESIAN_POINT('',(-0.367,0.5,0.138619393070132));
#637=CARTESIAN_POINT('',(-0.30675,0.5,0.0693096965350658));
#638=CARTESIAN_POINT('Origin',(-0.5,0.5,0.138619393070132));
#639=CARTESIAN_POINT('Origin',(-0.5,0.5,0.1375));
#640=CARTESIAN_POINT('',(-0.367,0.5,0.25));
#641=CARTESIAN_POINT('',(-0.367,0.5,0.1375));
#642=CARTESIAN_POINT('Origin',(-0.5,0.5,0.25));
#643=CARTESIAN_POINT('Origin',(0.,0.,0.));
#644=CARTESIAN_POINT('',(-6.,-7.34788079488412E-16,0.25));
#645=CARTESIAN_POINT('Origin',(0.,0.,0.25));
#646=CARTESIAN_POINT('',(-6.,-7.34788079488412E-16,0.));
#647=CARTESIAN_POINT('',(-6.,-7.34788079488412E-16,0.));
#648=CARTESIAN_POINT('Origin',(0.,0.,0.));
#649=CARTESIAN_POINT('Origin',(0.,0.,0.25));
#650=CARTESIAN_POINT('Origin',(0.,0.,0.));
#651=UNCERTAINTY_MEASURE_WITH_UNIT(LENGTH_MEASURE(0.000393700787401575),
#656,'DISTANCE_ACCURACY_VALUE',
'Maximum model space distance between geometric entities at asserted c
onnectivities');
#652=UNCERTAINTY_MEASURE_WITH_UNIT(LENGTH_MEASURE(0.000393700787401575),
#656,'DISTANCE_ACCURACY_VALUE',
'Maximum model space distance between geometric entities at asserted c
onnectivities');
#653=(
GEOMETRIC_REPRESENTATION_CONTEXT(3)
GLOBAL_UNCERTAINTY_ASSIGNED_CONTEXT((#651))
GLOBAL_UNIT_ASSIGNED_CONTEXT((#656,#660,#661))
REPRESENTATION_CONTEXT('','3D')
);
#654=(
GEOMETRIC_REPRESENTATION_CONTEXT(3)
GLOBAL_UNCERTAINTY_ASSIGNED_CONTEXT((#652))
GLOBAL_UNIT_ASSIGNED_CONTEXT((#656,#660,#661))
REPRESENTATION_CONTEXT('','3D')
);
#655=DIMENSIONAL_EXPONENTS(1.,0.,0.,0.,0.,0.,0.);
#656=(
CONVERSION_BASED_UNIT('inch',#659)
LENGTH_UNIT()
NAMED_UNIT(#655)
);
#657=(
LENGTH_UNIT()
NAMED_UNIT(*)
SI_UNIT(.MILLI.,.METRE.)
);
#658=(
LENGTH_UNIT()
NAMED_UNIT(*)
SI_UNIT($,.METRE.)
);
#659=LENGTH_MEASURE_WITH_UNIT(LENGTH_MEASURE(25.4),#657);
#660=(
NAMED_UNIT(*)
PLANE_ANGLE_UNIT()
SI_UNIT($,.RADIAN.)
);
#661=(
NAMED_UNIT(*)
SI_UNIT($,.STERADIAN.)
SOLID_ANGLE_UNIT()
);
#662=SHAPE_DEFINITION_REPRESENTATION(#663,#664);
#663=PRODUCT_DEFINITION_SHAPE('',$,#666);
#664=SHAPE_REPRESENTATION('',(#387),#653);
#665=PRODUCT_DEFINITION_CONTEXT('part definition',#670,'design');
#666=PRODUCT_DEFINITION('Turntable Flange','Turntable Flange v5',#667,#665);
#667=PRODUCT_DEFINITION_FORMATION('',$,#672);
#668=PRODUCT_RELATED_PRODUCT_CATEGORY('Turntable Flange v5',
'Turntable Flange v5',(#672));
#669=APPLICATION_PROTOCOL_DEFINITION('international standard',
'automotive_design',2009,#670);
#670=APPLICATION_CONTEXT(
'Core Data for Automotive Mechanical Design Process');
#671=PRODUCT_CONTEXT('part definition',#670,'mechanical');
#672=PRODUCT('Turntable Flange','Turntable Flange v5',$,(#671));
#673=PRESENTATION_STYLE_ASSIGNMENT((#674));
#674=SURFACE_STYLE_USAGE(.BOTH.,#675);
#675=SURFACE_SIDE_STYLE('',(#676));
#676=SURFACE_STYLE_FILL_AREA(#677);
#677=FILL_AREA_STYLE('Aluminum - Satin',(#678));
#678=FILL_AREA_STYLE_COLOUR('Aluminum - Satin',#679);
#679=COLOUR_RGB('Aluminum - Satin',0.96078431372549,0.96078431372549,0.964705882352941);
ENDSEC;
END-ISO-10303-21;
