ISO-10303-21;
HEADER;
FILE_DESCRIPTION (( 'STEP AP214' ),
    '1' );
FILE_NAME ('oblong-trou-cantilever.STEP',
    '2021-09-07T11:23:30',
    ( 'danielpujolsg@hotmail.com' ),
    ( 'Windows User' ),
    'SwSTEP 2.0',
    'SolidWorks 2016',
    '' );
FILE_SCHEMA (( 'AUTOMOTIVE_DESIGN' ));
ENDSEC;

DATA;
#1 = CARTESIAN_POINT ( 'NONE',  ( -35.06209999612119800, 13.65172413793099100, 145.5000000000000000 ) ) ;
#2 = EDGE_CURVE ( 'NONE', #13, #199, #172, .T. ) ;
#3 = PRODUCT_DEFINITION_SHAPE ( 'NONE', 'NONE',  #223 ) ;
#4 = DIRECTION ( 'NONE',  ( 1.000000000000000000, 1.040834085586084100E-015, -0.0000000000000000000 ) ) ;
#5 = CARTESIAN_POINT ( 'NONE',  ( -14.06209999612119800, 13.65172413793101200, 152.5000000000000000 ) ) ;
#6 = VECTOR ( 'NONE', #180, 1000.000000000000000 ) ;
#7 = CARTESIAN_POINT ( 'NONE',  ( -34.06209999612118400, 6.551724137931026700, 160.0000000000000000 ) ) ;
#8 = ORIENTED_EDGE ( 'NONE', *, *, #152, .T. ) ;
#9 = DIRECTION ( 'NONE',  ( -1.000000000000000000, -3.469446951953613700E-016, 0.0000000000000000000 ) ) ;
#10 = VECTOR ( 'NONE', #279, 1000.000000000000000 ) ;
#11 = CIRCLE ( 'NONE', #24, 2.099999999999990800 ) ;
#12 = DIRECTION ( 'NONE',  ( -1.000000000000000000, -0.0000000000000000000, -0.0000000000000000000 ) ) ;
#13 = VERTEX_POINT ( 'NONE', #91 ) ;
#14 = CARTESIAN_POINT ( 'NONE',  ( -14.06209999612119400, 9.451724137931030600, 152.5000000000000000 ) ) ;
#15 = FILL_AREA_STYLE ('',( #299 ) ) ;
#16 = AXIS2_PLACEMENT_3D ( 'NONE', #67, #241, #114 ) ;
#17 = UNCERTAINTY_MEASURE_WITH_UNIT (LENGTH_MEASURE( 1.000000000000000100E-005 ), #131, 'distance_accuracy_value', 'NONE');
#18 = VERTEX_POINT ( 'NONE', #337 ) ;
#19 = ORIENTED_EDGE ( 'NONE', *, *, #258, .T. ) ;
#20 = VECTOR ( 'NONE', #259, 1000.000000000000000 ) ;
#21 = EDGE_CURVE ( 'NONE', #167, #13, #157, .T. ) ;
#22 = LINE ( 'NONE', #257, #300 ) ;
#23 = AXIS2_PLACEMENT_3D ( 'NONE', #7, #89, #141 ) ;
#24 = AXIS2_PLACEMENT_3D ( 'NONE', #81, #72, #209 ) ;
#25 = EDGE_CURVE ( 'NONE', #161, #234, #27, .T. ) ;
#26 = APPLICATION_PROTOCOL_DEFINITION ( 'draft international standard', 'automotive_design', 1998, #238 ) ;
#27 = LINE ( 'NONE', #327, #245 ) ;
#28 = SURFACE_STYLE_USAGE ( .BOTH. , #147 ) ;
#29 = EDGE_CURVE ( 'NONE', #112, #167, #309, .T. ) ;
#30 = CARTESIAN_POINT ( 'NONE',  ( -14.06209999612118500, 6.551724137931026700, 160.0000000000000000 ) ) ;
#31 = CARTESIAN_POINT ( 'NONE',  ( -34.06209999612118400, 9.451724137931011100, 145.5000000000000000 ) ) ;
#32 = SURFACE_SIDE_STYLE ('',( #181 ) ) ;
#33 = ORIENTED_EDGE ( 'NONE', *, *, #170, .T. ) ;
#34 = LINE ( 'NONE', #336, #125 ) ;
#35 = EDGE_LOOP ( 'NONE', ( #272, #61, #129, #231 ) ) ;
#36 = ORIENTED_EDGE ( 'NONE', *, *, #55, .F. ) ;
#37 = DIRECTION ( 'NONE',  ( 0.0000000000000000000, 0.0000000000000000000, -1.000000000000000000 ) ) ;
#38 = DIRECTION ( 'NONE',  ( 1.000000000000000000, 1.040834085586084100E-015, -0.0000000000000000000 ) ) ;
#39 = ORIENTED_EDGE ( 'NONE', *, *, #278, .T. ) ;
#40 = AXIS2_PLACEMENT_3D ( 'NONE', #179, #154, #330 ) ;
#41 = PLANE ( 'NONE',  #135 ) ;
#42 = DIRECTION ( 'NONE',  ( 1.000000000000000000, 0.0000000000000000000, 0.0000000000000000000 ) ) ;
#43 =( LENGTH_UNIT ( ) NAMED_UNIT ( * ) SI_UNIT ( .MILLI., .METRE. ) );
#44 = VECTOR ( 'NONE', #322, 1000.000000000000000 ) ;
#45 = EDGE_LOOP ( 'NONE', ( #177, #39, #246, #76 ) ) ;
#46 = ADVANCED_FACE ( 'NONE', ( #108 ), #41, .F. ) ;
#47 = CARTESIAN_POINT ( 'NONE',  ( -34.06209999612118400, 16.55172413793102800, 160.0000000000000000 ) ) ;
#48 = VERTEX_POINT ( 'NONE', #30 ) ;
#49 = ORIENTED_EDGE ( 'NONE', *, *, #68, .F. ) ;
#50 = VECTOR ( 'NONE', #4, 1000.000000000000000 ) ;
#51 = EDGE_CURVE ( 'NONE', #329, #293, #138, .T. ) ;
#52 = ORIENTED_EDGE ( 'NONE', *, *, #123, .F. ) ;
#53 = VECTOR ( 'NONE', #87, 1000.000000000000000 ) ;
#54 = VERTEX_POINT ( 'NONE', #227 ) ;
#55 = EDGE_CURVE ( 'NONE', #48, #264, #338, .T. ) ;
#56 = DIRECTION ( 'NONE',  ( 0.0000000000000000000, 0.0000000000000000000, -1.000000000000000000 ) ) ;
#57 = LINE ( 'NONE', #230, #50 ) ;
#58 = DIRECTION ( 'NONE',  ( -3.469446951953613700E-016, 1.000000000000000000, 0.0000000000000000000 ) ) ;
#59 = LINE ( 'NONE', #132, #126 ) ;
#60 = ORIENTED_EDGE ( 'NONE', *, *, #334, .F. ) ;
#61 = ORIENTED_EDGE ( 'NONE', *, *, #171, .F. ) ;
#62 = ADVANCED_BREP_SHAPE_REPRESENTATION ( 'oblong-trou-cantilever', ( #153, #16 ), #92 ) ;
#63 =( GEOMETRIC_REPRESENTATION_CONTEXT ( 3 ) GLOBAL_UNCERTAINTY_ASSIGNED_CONTEXT ( ( #184 ) ) GLOBAL_UNIT_ASSIGNED_CONTEXT ( ( #43, #75, #301 ) ) REPRESENTATION_CONTEXT ( 'NONE', 'WORKASPACE' ) );
#64 = ORIENTED_EDGE ( 'NONE', *, *, #25, .F. ) ;
#65 = FACE_OUTER_BOUND ( 'NONE', #35, .T. ) ;
#66 = EDGE_CURVE ( 'NONE', #167, #90, #306, .T. ) ;
#67 = CARTESIAN_POINT ( 'NONE',  ( 0.0000000000000000000, 0.0000000000000000000, 0.0000000000000000000 ) ) ;
#68 = EDGE_CURVE ( 'NONE', #298, #234, #163, .T. ) ;
#69 =( NAMED_UNIT ( * ) SI_UNIT ( $, .STERADIAN. ) SOLID_ANGLE_UNIT ( ) );
#70 = DIRECTION ( 'NONE',  ( -0.0000000000000000000, -1.000000000000000000, -0.0000000000000000000 ) ) ;
#71 = ADVANCED_FACE ( 'NONE', ( #189, #93 ), #208, .F. ) ;
#72 = DIRECTION ( 'NONE',  ( 1.000000000000000000, 0.0000000000000000000, 0.0000000000000000000 ) ) ;
#73 = AXIS2_PLACEMENT_3D ( 'NONE', #284, #291, #145 ) ;
#74 = EDGE_CURVE ( 'NONE', #88, #161, #339, .T. ) ;
#75 =( NAMED_UNIT ( * ) PLANE_ANGLE_UNIT ( ) SI_UNIT ( $, .RADIAN. ) );
#76 = ORIENTED_EDGE ( 'NONE', *, *, #288, .F. ) ;
#77 = DIRECTION ( 'NONE',  ( -8.260587980841975300E-016, 1.000000000000000000, 0.0000000000000000000 ) ) ;
#78 = CIRCLE ( 'NONE', #320, 2.099999999999990800 ) ;
#79 = MECHANICAL_DESIGN_GEOMETRIC_PRESENTATION_REPRESENTATION (  '', ( #217 ), #321 ) ;
#80 =( NAMED_UNIT ( * ) PLANE_ANGLE_UNIT ( ) SI_UNIT ( $, .RADIAN. ) );
#81 = CARTESIAN_POINT ( 'NONE',  ( -34.06209999612118400, 11.55172413793100700, 145.5000000000000000 ) ) ;
#82 = PRESENTATION_STYLE_ASSIGNMENT (( #315 ) ) ;
#83 = CARTESIAN_POINT ( 'NONE',  ( -14.06209999612118900, 16.55172413793102800, 160.0000000000000000 ) ) ;
#84 = DIRECTION ( 'NONE',  ( 1.000000000000000000, 1.040834085586084100E-015, 0.0000000000000000000 ) ) ;
#85 = CARTESIAN_POINT ( 'NONE',  ( -35.06209999612119800, 11.55172413793100000, 152.5000000000000000 ) ) ;
#86 = LINE ( 'NONE', #95, #44 ) ;
#87 = DIRECTION ( 'NONE',  ( 0.0000000000000000000, -0.0000000000000000000, 1.000000000000000000 ) ) ;
#88 = VERTEX_POINT ( 'NONE', #120 ) ;
#89 = DIRECTION ( 'NONE',  ( 0.0000000000000000000, 1.000000000000000000, 0.0000000000000000000 ) ) ;
#90 = VERTEX_POINT ( 'NONE', #143 ) ;
#91 = CARTESIAN_POINT ( 'NONE',  ( -34.06209999612118400, 16.55172413793102800, 0.0000000000000000000 ) ) ;
#92 =( GEOMETRIC_REPRESENTATION_CONTEXT ( 3 ) GLOBAL_UNCERTAINTY_ASSIGNED_CONTEXT ( ( #17 ) ) GLOBAL_UNIT_ASSIGNED_CONTEXT ( ( #131, #228, #191 ) ) REPRESENTATION_CONTEXT ( 'NONE', 'WORKASPACE' ) );
#93 = FACE_OUTER_BOUND ( 'NONE', #267, .T. ) ;
#94 = ADVANCED_FACE ( 'NONE', ( #185 ), #169, .F. ) ;
#95 = CARTESIAN_POINT ( 'NONE',  ( -34.06209999612118400, 6.551724137931026700, 0.0000000000000000000 ) ) ;
#96 = DIRECTION ( 'NONE',  ( -1.000000000000000000, -1.040834085586084100E-015, 0.0000000000000000000 ) ) ;
#97 = ORIENTED_EDGE ( 'NONE', *, *, #171, .T. ) ;
#98 = DIRECTION ( 'NONE',  ( -1.000000000000000000, -0.0000000000000000000, -0.0000000000000000000 ) ) ;
#99 = VECTOR ( 'NONE', #70, 1000.000000000000000 ) ;
#100 = CARTESIAN_POINT ( 'NONE',  ( -14.06209999612118900, 16.55172413793102800, 160.0000000000000000 ) ) ;
#101 = CARTESIAN_POINT ( 'NONE',  ( -34.06209999612118400, 6.551724137931026700, 160.0000000000000000 ) ) ;
#102 = DIRECTION ( 'NONE',  ( -1.000000000000000000, 0.0000000000000000000, -0.0000000000000000000 ) ) ;
#103 = CARTESIAN_POINT ( 'NONE',  ( -35.06209999612119800, 9.451724137931009300, 152.5000000000000000 ) ) ;
#104 = ORIENTED_EDGE ( 'NONE', *, *, #66, .T. ) ;
#105 = AXIS2_PLACEMENT_3D ( 'NONE', #85, #274, #325 ) ;
#106 = CARTESIAN_POINT ( 'NONE',  ( -34.06209999612118400, 6.551724137931026700, 160.0000000000000000 ) ) ;
#107 = SHAPE_DEFINITION_REPRESENTATION ( #3, #62 ) ;
#108 = FACE_OUTER_BOUND ( 'NONE', #332, .T. ) ;
#109 = ORIENTED_EDGE ( 'NONE', *, *, #152, .F. ) ;
#110 = CARTESIAN_POINT ( 'NONE',  ( -34.06209999612118400, 16.55172413793102800, 160.0000000000000000 ) ) ;
#111 = LINE ( 'NONE', #193, #328 ) ;
#112 = VERTEX_POINT ( 'NONE', #100 ) ;
#113 = DIRECTION ( 'NONE',  ( -0.0000000000000000000, -0.0000000000000000000, -1.000000000000000000 ) ) ;
#114 = DIRECTION ( 'NONE',  ( 1.000000000000000000, 0.0000000000000000000, 0.0000000000000000000 ) ) ;
#115 = ORIENTED_EDGE ( 'NONE', *, *, #66, .F. ) ;
#116 = EDGE_LOOP ( 'NONE', ( #146, #8, #292, #270 ) ) ;
#117 = VERTEX_POINT ( 'NONE', #14 ) ;
#118 = ADVANCED_FACE ( 'NONE', ( #201 ), #196, .F. ) ;
#119 = STYLED_ITEM ( 'NONE', ( #82 ), #62 ) ;
#120 = CARTESIAN_POINT ( 'NONE',  ( -14.06209999612119400, 9.451724137931030600, 145.5000000000000000 ) ) ;
#121 = CARTESIAN_POINT ( 'NONE',  ( -34.06209999612118400, 6.551724137931026700, 0.0000000000000000000 ) ) ;
#122 = FACE_OUTER_BOUND ( 'NONE', #224, .T. ) ;
#123 = EDGE_CURVE ( 'NONE', #117, #88, #22, .T. ) ;
#124 = CARTESIAN_POINT ( 'NONE',  ( 0.0000000000000000000, 0.0000000000000000000, 0.0000000000000000000 ) ) ;
#125 = VECTOR ( 'NONE', #58, 1000.000000000000000 ) ;
#126 = VECTOR ( 'NONE', #311, 1000.000000000000000 ) ;
#127 = DIRECTION ( 'NONE',  ( -1.040834085586084100E-015, 1.000000000000000000, 0.0000000000000000000 ) ) ;
#128 = DIRECTION ( 'NONE',  ( 1.040834085586084100E-015, -1.000000000000000000, 0.0000000000000000000 ) ) ;
#129 = ORIENTED_EDGE ( 'NONE', *, *, #226, .F. ) ;
#130 = APPLICATION_CONTEXT ( 'automotive_design' ) ;
#131 =( LENGTH_UNIT ( ) NAMED_UNIT ( * ) SI_UNIT ( .MILLI., .METRE. ) );
#132 = CARTESIAN_POINT ( 'NONE',  ( -35.06209999612119800, 9.451724137931009300, 145.5000000000000000 ) ) ;
#133 = CARTESIAN_POINT ( 'NONE',  ( -14.06209999612118500, 6.551724137931026700, 160.0000000000000000 ) ) ;
#134 = ORIENTED_EDGE ( 'NONE', *, *, #265, .F. ) ;
#135 = AXIS2_PLACEMENT_3D ( 'NONE', #289, #158, #203 ) ;
#136 = DIRECTION ( 'NONE',  ( 1.000000000000000000, 1.040834085586084100E-015, 0.0000000000000000000 ) ) ;
#137 = CARTESIAN_POINT ( 'NONE',  ( -14.06209999612118500, 6.551724137931026700, 0.0000000000000000000 ) ) ;
#138 = LINE ( 'NONE', #216, #20 ) ;
#139 = VECTOR ( 'NONE', #98, 1000.000000000000000 ) ;
#140 = COLOUR_RGB ( '',0.8980392156862745400, 0.9176470588235293700, 0.9294117647058823800 ) ;
#141 = DIRECTION ( 'NONE',  ( 0.0000000000000000000, -0.0000000000000000000, 1.000000000000000000 ) ) ;
#142 = ORIENTED_EDGE ( 'NONE', *, *, #123, .T. ) ;
#143 = CARTESIAN_POINT ( 'NONE',  ( -34.06209999612118400, 6.551724137931026700, 160.0000000000000000 ) ) ;
#144 = EDGE_CURVE ( 'NONE', #264, #54, #305, .T. ) ;
#145 = DIRECTION ( 'NONE',  ( 0.0000000000000000000, 1.000000000000000000, 0.0000000000000000000 ) ) ;
#146 = ORIENTED_EDGE ( 'NONE', *, *, #51, .T. ) ;
#147 = SURFACE_SIDE_STYLE ('',( #202 ) ) ;
#148 = AXIS2_PLACEMENT_3D ( 'NONE', #276, #127, #96 ) ;
#149 = CARTESIAN_POINT ( 'NONE',  ( -14.06209999612118700, 13.65172413793101000, 145.5000000000000000 ) ) ;
#150 = PLANE ( 'NONE',  #148 ) ;
#151 = ORIENTED_EDGE ( 'NONE', *, *, #278, .F. ) ;
#152 = EDGE_CURVE ( 'NONE', #293, #18, #11, .T. ) ;
#153 = MANIFOLD_SOLID_BREP ( 'Cut-Extrude1', #250 ) ;
#154 = DIRECTION ( 'NONE',  ( 0.0000000000000000000, 0.0000000000000000000, -1.000000000000000000 ) ) ;
#155 = DIRECTION ( 'NONE',  ( -8.260587980841975300E-016, 1.000000000000000000, 0.0000000000000000000 ) ) ;
#156 = COLOUR_RGB ( '',0.8980392156862745400, 0.9176470588235293700, 0.9294117647058823800 ) ;
#157 = LINE ( 'NONE', #188, #282 ) ;
#158 = DIRECTION ( 'NONE',  ( 0.0000000000000000000, -1.000000000000000000, 0.0000000000000000000 ) ) ;
#159 = PRESENTATION_LAYER_ASSIGNMENT (  '', '', ( #119 ) ) ;
#160 = AXIS2_PLACEMENT_3D ( 'NONE', #106, #42, #239 ) ;
#161 = VERTEX_POINT ( 'NONE', #149 ) ;
#162 = VECTOR ( 'NONE', #174, 1000.000000000000000 ) ;
#163 = LINE ( 'NONE', #248, #236 ) ;
#164 = LINE ( 'NONE', #1, #244 ) ;
#165 = APPLICATION_PROTOCOL_DEFINITION ( 'draft international standard', 'automotive_design', 1998, #130 ) ;
#166 = ORIENTED_EDGE ( 'NONE', *, *, #200, .T. ) ;
#167 = VERTEX_POINT ( 'NONE', #110 ) ;
#168 = PLANE ( 'NONE',  #341 ) ;
#169 = CYLINDRICAL_SURFACE ( 'NONE', #105, 2.099999999999990800 ) ;
#170 = EDGE_CURVE ( 'NONE', #293, #88, #59, .T. ) ;
#171 = EDGE_CURVE ( 'NONE', #112, #54, #235, .T. ) ;
#172 = LINE ( 'NONE', #221, #99 ) ;
#173 = EDGE_CURVE ( 'NONE', #329, #117, #57, .T. ) ;
#174 = DIRECTION ( 'NONE',  ( -3.469446951953613700E-016, 1.000000000000000000, 0.0000000000000000000 ) ) ;
#175 = FILL_AREA_STYLE ('',( #219 ) ) ;
#176 = LINE ( 'NONE', #251, #139 ) ;
#177 = ORIENTED_EDGE ( 'NONE', *, *, #68, .T. ) ;
#178 = DIRECTION ( 'NONE',  ( 1.000000000000000000, 1.040834085586084100E-015, 0.0000000000000000000 ) ) ;
#179 = CARTESIAN_POINT ( 'NONE',  ( 0.0000000000000000000, 0.0000000000000000000, 160.0000000000000000 ) ) ;
#180 = DIRECTION ( 'NONE',  ( -0.0000000000000000000, -1.000000000000000000, -0.0000000000000000000 ) ) ;
#181 = SURFACE_STYLE_FILL_AREA ( #175 ) ;
#182 = VECTOR ( 'NONE', #12, 1000.000000000000000 ) ;
#183 = PRODUCT ( 'oblong-trou-cantilever', 'oblong-trou-cantilever', '', ( #211 ) ) ;
#184 = UNCERTAINTY_MEASURE_WITH_UNIT (LENGTH_MEASURE( 1.000000000000000100E-005 ), #43, 'distance_accuracy_value', 'NONE');
#185 = FACE_OUTER_BOUND ( 'NONE', #45, .T. ) ;
#186 = DIRECTION ( 'NONE',  ( -0.0000000000000000000, -0.0000000000000000000, -1.000000000000000000 ) ) ;
#187 = ORIENTED_EDGE ( 'NONE', *, *, #2, .F. ) ;
#188 = CARTESIAN_POINT ( 'NONE',  ( -34.06209999612118400, 16.55172413793102800, 160.0000000000000000 ) ) ;
#189 = FACE_BOUND ( 'NONE', #116, .T. ) ;
#190 = CARTESIAN_POINT ( 'NONE',  ( -34.06209999612118400, 11.55172413793100200, 152.5000000000000000 ) ) ;
#191 =( NAMED_UNIT ( * ) SI_UNIT ( $, .STERADIAN. ) SOLID_ANGLE_UNIT ( ) );
#192 = ORIENTED_EDGE ( 'NONE', *, *, #74, .T. ) ;
#193 = CARTESIAN_POINT ( 'NONE',  ( -34.06209999612118400, 6.551724137931026700, 160.0000000000000000 ) ) ;
#194 = ORIENTED_EDGE ( 'NONE', *, *, #173, .T. ) ;
#195 = PLANE ( 'NONE',  #295 ) ;
#196 = PLANE ( 'NONE',  #40 ) ;
#197 = ADVANCED_FACE ( 'NONE', ( #213 ), #150, .F. ) ;
#198 = ADVANCED_FACE ( 'NONE', ( #263 ), #333, .F. ) ;
#199 = VERTEX_POINT ( 'NONE', #121 ) ;
#200 = EDGE_CURVE ( 'NONE', #90, #48, #111, .T. ) ;
#201 = FACE_OUTER_BOUND ( 'NONE', #220, .T. ) ;
#202 = SURFACE_STYLE_FILL_AREA ( #15 ) ;
#203 = DIRECTION ( 'NONE',  ( 0.0000000000000000000, -0.0000000000000000000, -1.000000000000000000 ) ) ;
#204 = LINE ( 'NONE', #340, #53 ) ;
#205 = DIRECTION ( 'NONE',  ( 1.000000000000000000, 0.0000000000000000000, 0.0000000000000000000 ) ) ;
#206 = CARTESIAN_POINT ( 'NONE',  ( -34.06209999612118400, 6.551724137931026700, 160.0000000000000000 ) ) ;
#207 = ORIENTED_EDGE ( 'NONE', *, *, #74, .F. ) ;
#208 = PLANE ( 'NONE',  #160 ) ;
#209 = DIRECTION ( 'NONE',  ( 0.0000000000000000000, 0.0000000000000000000, -1.000000000000000000 ) ) ;
#210 = FACE_OUTER_BOUND ( 'NONE', #335, .T. ) ;
#211 = PRODUCT_CONTEXT ( 'NONE', #238, 'mechanical' ) ;
#212 = DIRECTION ( 'NONE',  ( -0.0000000000000000000, -0.0000000000000000000, 1.000000000000000000 ) ) ;
#213 = FACE_OUTER_BOUND ( 'NONE', #323, .T. ) ;
#214 = ORIENTED_EDGE ( 'NONE', *, *, #29, .F. ) ;
#215 = PRESENTATION_STYLE_ASSIGNMENT (( #28 ) ) ;
#216 = CARTESIAN_POINT ( 'NONE',  ( -34.06209999612118400, 9.451724137931009300, 160.0000000000000000 ) ) ;
#217 = STYLED_ITEM ( 'NONE', ( #215 ), #153 ) ;
#218 = CARTESIAN_POINT ( 'NONE',  ( -34.06209999612118400, 13.65172413793099100, 152.5000000000000000 ) ) ;
#219 = FILL_AREA_STYLE_COLOUR ( '', #156 ) ;
#220 = EDGE_LOOP ( 'NONE', ( #104, #166, #222, #286 ) ) ;
#221 = CARTESIAN_POINT ( 'NONE',  ( -34.06209999612118400, 6.551724137931026700, 0.0000000000000000000 ) ) ;
#222 = ORIENTED_EDGE ( 'NONE', *, *, #226, .T. ) ;
#223 = PRODUCT_DEFINITION ( 'UNKNOWN', '', #256, #310 ) ;
#224 = EDGE_LOOP ( 'NONE', ( #194, #142, #242, #243 ) ) ;
#225 = ORIENTED_EDGE ( 'NONE', *, *, #200, .F. ) ;
#226 = EDGE_CURVE ( 'NONE', #48, #112, #34, .T. ) ;
#227 = CARTESIAN_POINT ( 'NONE',  ( -14.06209999612118900, 16.55172413793102800, 0.0000000000000000000 ) ) ;
#228 =( NAMED_UNIT ( * ) PLANE_ANGLE_UNIT ( ) SI_UNIT ( $, .RADIAN. ) );
#229 = MECHANICAL_DESIGN_GEOMETRIC_PRESENTATION_REPRESENTATION (  '', ( #119 ), #63 ) ;
#230 = CARTESIAN_POINT ( 'NONE',  ( -35.06209999612119800, 9.451724137931009300, 152.5000000000000000 ) ) ;
#231 = ORIENTED_EDGE ( 'NONE', *, *, #55, .T. ) ;
#232 = DIRECTION ( 'NONE',  ( -0.0000000000000000000, -0.0000000000000000000, -1.000000000000000000 ) ) ;
#233 = ADVANCED_FACE ( 'NONE', ( #122 ), #168, .F. ) ;
#234 = VERTEX_POINT ( 'NONE', #5 ) ;
#235 = LINE ( 'NONE', #83, #10 ) ;
#236 = VECTOR ( 'NONE', #268, 1000.000000000000000 ) ;
#237 = ORIENTED_EDGE ( 'NONE', *, *, #265, .T. ) ;
#238 = APPLICATION_CONTEXT ( 'automotive_design' ) ;
#239 = DIRECTION ( 'NONE',  ( 0.0000000000000000000, 0.0000000000000000000, -1.000000000000000000 ) ) ;
#240 = DIRECTION ( 'NONE',  ( 0.0000000000000000000, 0.0000000000000000000, -1.000000000000000000 ) ) ;
#241 = DIRECTION ( 'NONE',  ( 0.0000000000000000000, 0.0000000000000000000, 1.000000000000000000 ) ) ;
#242 = ORIENTED_EDGE ( 'NONE', *, *, #170, .F. ) ;
#243 = ORIENTED_EDGE ( 'NONE', *, *, #51, .F. ) ;
#244 = VECTOR ( 'NONE', #38, 1000.000000000000000 ) ;
#245 = VECTOR ( 'NONE', #212, 1000.000000000000000 ) ;
#246 = ORIENTED_EDGE ( 'NONE', *, *, #173, .F. ) ;
#247 = AXIS2_PLACEMENT_3D ( 'NONE', #190, #331, #240 ) ;
#248 = CARTESIAN_POINT ( 'NONE',  ( -35.06209999612119800, 13.65172413793099100, 152.5000000000000000 ) ) ;
#249 =( LENGTH_UNIT ( ) NAMED_UNIT ( * ) SI_UNIT ( .MILLI., .METRE. ) );
#250 = CLOSED_SHELL ( 'NONE', ( #71, #198, #252, #46, #118, #281, #314, #233, #94, #197 ) ) ;
#251 = CARTESIAN_POINT ( 'NONE',  ( -34.06209999612118400, 16.55172413793102800, 0.0000000000000000000 ) ) ;
#252 = ADVANCED_FACE ( 'NONE', ( #318, #65 ), #195, .F. ) ;
#253 = AXIS2_PLACEMENT_3D ( 'NONE', #124, #56, #102 ) ;
#254 = ORIENTED_EDGE ( 'NONE', *, *, #21, .F. ) ;
#255 = CARTESIAN_POINT ( 'NONE',  ( -14.06209999612119600, 11.55172413793102100, 152.5000000000000000 ) ) ;
#256 = PRODUCT_DEFINITION_FORMATION_WITH_SPECIFIED_SOURCE ( 'ANY', '', #183, .NOT_KNOWN. ) ;
#257 = CARTESIAN_POINT ( 'NONE',  ( -14.06209999612119400, 9.451724137931030600, 152.5000000000000000 ) ) ;
#258 = EDGE_CURVE ( 'NONE', #54, #13, #176, .T. ) ;
#259 = DIRECTION ( 'NONE',  ( 0.0000000000000000000, 0.0000000000000000000, -1.000000000000000000 ) ) ;
#260 = ORIENTED_EDGE ( 'NONE', *, *, #307, .T. ) ;
#261 = ORIENTED_EDGE ( 'NONE', *, *, #25, .T. ) ;
#262 = EDGE_LOOP ( 'NONE', ( #260, #36, #225, #237 ) ) ;
#263 = FACE_OUTER_BOUND ( 'NONE', #262, .T. ) ;
#264 = VERTEX_POINT ( 'NONE', #297 ) ;
#265 = EDGE_CURVE ( 'NONE', #90, #199, #294, .T. ) ;
#266 = PRESENTATION_LAYER_ASSIGNMENT (  '', '', ( #217 ) ) ;
#267 = EDGE_LOOP ( 'NONE', ( #317, #134, #115, #303 ) ) ;
#268 = DIRECTION ( 'NONE',  ( 1.000000000000000000, 1.040834085586084100E-015, -0.0000000000000000000 ) ) ;
#269 = FACE_OUTER_BOUND ( 'NONE', #324, .T. ) ;
#270 = ORIENTED_EDGE ( 'NONE', *, *, #288, .T. ) ;
#271 = DIRECTION ( 'NONE',  ( 3.469446951953613700E-016, -1.000000000000000000, 0.0000000000000000000 ) ) ;
#272 = ORIENTED_EDGE ( 'NONE', *, *, #144, .T. ) ;
#273 = CARTESIAN_POINT ( 'NONE',  ( -14.06209999612118500, 6.551724137931026700, 160.0000000000000000 ) ) ;
#274 = DIRECTION ( 'NONE',  ( 1.000000000000000000, 1.040834085586084100E-015, -0.0000000000000000000 ) ) ;
#275 = AXIS2_PLACEMENT_3D ( 'NONE', #296, #136, #155 ) ;
#276 = CARTESIAN_POINT ( 'NONE',  ( -35.06209999612119800, 13.65172413793099100, 152.5000000000000000 ) ) ;
#277 = VECTOR ( 'NONE', #186, 1000.000000000000000 ) ;
#278 = EDGE_CURVE ( 'NONE', #234, #117, #78, .T. ) ;
#279 = DIRECTION ( 'NONE',  ( -0.0000000000000000000, -0.0000000000000000000, -1.000000000000000000 ) ) ;
#280 = ORIENTED_EDGE ( 'NONE', *, *, #307, .F. ) ;
#281 = ADVANCED_FACE ( 'NONE', ( #210 ), #290, .T. ) ;
#282 = VECTOR ( 'NONE', #232, 1000.000000000000000 ) ;
#283 = UNCERTAINTY_MEASURE_WITH_UNIT (LENGTH_MEASURE( 1.000000000000000100E-005 ), #249, 'distance_accuracy_value', 'NONE');
#284 = CARTESIAN_POINT ( 'NONE',  ( -35.06209999612119800, 11.55172413793100500, 145.5000000000000000 ) ) ;
#285 = ORIENTED_EDGE ( 'NONE', *, *, #312, .T. ) ;
#286 = ORIENTED_EDGE ( 'NONE', *, *, #29, .T. ) ;
#287 = EDGE_LOOP ( 'NONE', ( #64, #207, #52, #151 ) ) ;
#288 = EDGE_CURVE ( 'NONE', #298, #329, #313, .T. ) ;
#289 = CARTESIAN_POINT ( 'NONE',  ( -34.06209999612118400, 16.55172413793102800, 160.0000000000000000 ) ) ;
#290 = PLANE ( 'NONE',  #253 ) ;
#291 = DIRECTION ( 'NONE',  ( 1.000000000000000000, 1.040834085586084100E-015, -0.0000000000000000000 ) ) ;
#292 = ORIENTED_EDGE ( 'NONE', *, *, #334, .T. ) ;
#293 = VERTEX_POINT ( 'NONE', #31 ) ;
#294 = LINE ( 'NONE', #206, #277 ) ;
#295 = AXIS2_PLACEMENT_3D ( 'NONE', #133, #9, #271 ) ;
#296 = CARTESIAN_POINT ( 'NONE',  ( -14.06209999612119600, 11.55172413793102800, 145.5000000000000000 ) ) ;
#297 = CARTESIAN_POINT ( 'NONE',  ( -14.06209999612118500, 6.551724137931026700, 0.0000000000000000000 ) ) ;
#298 = VERTEX_POINT ( 'NONE', #218 ) ;
#299 = FILL_AREA_STYLE_COLOUR ( '', #140 ) ;
#300 = VECTOR ( 'NONE', #37, 1000.000000000000000 ) ;
#301 =( NAMED_UNIT ( * ) SI_UNIT ( $, .STERADIAN. ) SOLID_ANGLE_UNIT ( ) );
#302 = ORIENTED_EDGE ( 'NONE', *, *, #258, .F. ) ;
#303 = ORIENTED_EDGE ( 'NONE', *, *, #21, .T. ) ;
#304 = PRODUCT_RELATED_PRODUCT_CATEGORY ( 'part', '', ( #183 ) ) ;
#305 = LINE ( 'NONE', #137, #162 ) ;
#306 = LINE ( 'NONE', #101, #6 ) ;
#307 = EDGE_CURVE ( 'NONE', #199, #264, #86, .T. ) ;
#308 = CYLINDRICAL_SURFACE ( 'NONE', #73, 2.099999999999990800 ) ;
#309 = LINE ( 'NONE', #47, #182 ) ;
#310 = PRODUCT_DEFINITION_CONTEXT ( 'detailed design', #130, 'design' ) ;
#311 = DIRECTION ( 'NONE',  ( 1.000000000000000000, 1.040834085586084100E-015, -0.0000000000000000000 ) ) ;
#312 = EDGE_CURVE ( 'NONE', #18, #161, #164, .T. ) ;
#313 = CIRCLE ( 'NONE', #247, 2.099999999999990800 ) ;
#314 = ADVANCED_FACE ( 'NONE', ( #269 ), #308, .F. ) ;
#315 = SURFACE_STYLE_USAGE ( .BOTH. , #32 ) ;
#316 = VECTOR ( 'NONE', #113, 1000.000000000000000 ) ;
#317 = ORIENTED_EDGE ( 'NONE', *, *, #2, .T. ) ;
#318 = FACE_BOUND ( 'NONE', #287, .T. ) ;
#319 = ORIENTED_EDGE ( 'NONE', *, *, #312, .F. ) ;
#320 = AXIS2_PLACEMENT_3D ( 'NONE', #255, #178, #77 ) ;
#321 =( GEOMETRIC_REPRESENTATION_CONTEXT ( 3 ) GLOBAL_UNCERTAINTY_ASSIGNED_CONTEXT ( ( #283 ) ) GLOBAL_UNIT_ASSIGNED_CONTEXT ( ( #249, #80, #69 ) ) REPRESENTATION_CONTEXT ( 'NONE', 'WORKASPACE' ) );
#322 = DIRECTION ( 'NONE',  ( 1.000000000000000000, 0.0000000000000000000, 0.0000000000000000000 ) ) ;
#323 = EDGE_LOOP ( 'NONE', ( #285, #261, #49, #60 ) ) ;
#324 = EDGE_LOOP ( 'NONE', ( #33, #192, #319, #109 ) ) ;
#325 = DIRECTION ( 'NONE',  ( 0.0000000000000000000, 1.000000000000000000, 0.0000000000000000000 ) ) ;
#326 = CARTESIAN_POINT ( 'NONE',  ( -34.06209999612118400, 9.451724137931011100, 152.5000000000000000 ) ) ;
#327 = CARTESIAN_POINT ( 'NONE',  ( -14.06209999612119800, 13.65172413793101200, 152.5000000000000000 ) ) ;
#328 = VECTOR ( 'NONE', #205, 1000.000000000000000 ) ;
#329 = VERTEX_POINT ( 'NONE', #326 ) ;
#330 = DIRECTION ( 'NONE',  ( -1.000000000000000000, 0.0000000000000000000, -0.0000000000000000000 ) ) ;
#331 = DIRECTION ( 'NONE',  ( 1.000000000000000000, 0.0000000000000000000, 0.0000000000000000000 ) ) ;
#332 = EDGE_LOOP ( 'NONE', ( #19, #254, #214, #97 ) ) ;
#333 = PLANE ( 'NONE',  #23 ) ;
#334 = EDGE_CURVE ( 'NONE', #18, #298, #204, .T. ) ;
#335 = EDGE_LOOP ( 'NONE', ( #187, #302, #342, #280 ) ) ;
#336 = CARTESIAN_POINT ( 'NONE',  ( -14.06209999612118500, 6.551724137931026700, 160.0000000000000000 ) ) ;
#337 = CARTESIAN_POINT ( 'NONE',  ( -34.06209999612118400, 13.65172413793099300, 145.5000000000000000 ) ) ;
#338 = LINE ( 'NONE', #273, #316 ) ;
#339 = CIRCLE ( 'NONE', #275, 2.099999999999990800 ) ;
#340 = CARTESIAN_POINT ( 'NONE',  ( -34.06209999612118400, 13.65172413793099100, 160.0000000000000000 ) ) ;
#341 = AXIS2_PLACEMENT_3D ( 'NONE', #103, #128, #84 ) ;
#342 = ORIENTED_EDGE ( 'NONE', *, *, #144, .F. ) ;
ENDSEC;
END-ISO-10303-21;
