ISO-10303-21;
HEADER;
/* Generated by software containing ST-Developer
 * from STEP Tools, Inc. (www.steptools.com) 
 */

FILE_DESCRIPTION(
/* description */ (''),
/* implementation_level */ '2;1');

FILE_NAME(
/* name */ 
'\\\\nastanneurs\\Tanneurs\\Zouc Duplex\\Store\\Maison\\Revu\\rea lait
on diam8.step',
/* time_stamp */ '2021-09-05T16:44:54+02:00',
/* author */ ('Zouc'),
/* organization */ (''),
/* preprocessor_version */ 'ST-DEVELOPER v16.1',
/* originating_system */ 'Autodesk Inventor 2016',
/* authorisation */ '');

FILE_SCHEMA (('CONFIG_CONTROL_DESIGN'));
ENDSEC;

DATA;
#10=MECHANICAL_DESIGN_GEOMETRIC_PRESENTATION_REPRESENTATION('',(#13),#143);
#11=SHAPE_REPRESENTATION_RELATIONSHIP('SRR','None',#152,#12);
#12=ADVANCED_BREP_SHAPE_REPRESENTATION('',(#14),#142);
#13=STYLED_ITEM('',(#161),#14);
#14=MANIFOLD_SOLID_BREP('Solide1',#81);
#15=PLANE('',#93);
#16=PLANE('',#94);
#17=CYLINDRICAL_SURFACE('',#86,4.);
#18=CYLINDRICAL_SURFACE('',#88,1.5);
#19=CYLINDRICAL_SURFACE('',#91,4.);
#20=FACE_BOUND('',#33,.T.);
#21=FACE_BOUND('',#35,.T.);
#22=FACE_BOUND('',#37,.T.);
#23=FACE_BOUND('',#39,.T.);
#24=FACE_BOUND('',#41,.T.);
#25=FACE_BOUND('',#43,.T.);
#26=FACE_OUTER_BOUND('',#32,.T.);
#27=FACE_OUTER_BOUND('',#34,.T.);
#28=FACE_OUTER_BOUND('',#36,.T.);
#29=FACE_OUTER_BOUND('',#38,.T.);
#30=FACE_OUTER_BOUND('',#40,.T.);
#31=FACE_OUTER_BOUND('',#42,.T.);
#32=EDGE_LOOP('',(#62));
#33=EDGE_LOOP('',(#63));
#34=EDGE_LOOP('',(#64));
#35=EDGE_LOOP('',(#65));
#36=EDGE_LOOP('',(#66));
#37=EDGE_LOOP('',(#67));
#38=EDGE_LOOP('',(#68));
#39=EDGE_LOOP('',(#69));
#40=EDGE_LOOP('',(#70));
#41=EDGE_LOOP('',(#71));
#42=EDGE_LOOP('',(#72));
#43=EDGE_LOOP('',(#73));
#44=CIRCLE('',#84,4.);
#45=CIRCLE('',#85,4.);
#46=CIRCLE('',#87,4.);
#47=CIRCLE('',#89,1.5);
#48=CIRCLE('',#90,1.5);
#49=CIRCLE('',#92,4.);
#50=VERTEX_POINT('',#123);
#51=VERTEX_POINT('',#125);
#52=VERTEX_POINT('',#128);
#53=VERTEX_POINT('',#131);
#54=VERTEX_POINT('',#133);
#55=VERTEX_POINT('',#136);
#56=EDGE_CURVE('',#50,#50,#44,.T.);
#57=EDGE_CURVE('',#51,#51,#45,.T.);
#58=EDGE_CURVE('',#52,#52,#46,.T.);
#59=EDGE_CURVE('',#53,#53,#47,.T.);
#60=EDGE_CURVE('',#54,#54,#48,.T.);
#61=EDGE_CURVE('',#55,#55,#49,.T.);
#62=ORIENTED_EDGE('',*,*,#56,.F.);
#63=ORIENTED_EDGE('',*,*,#57,.F.);
#64=ORIENTED_EDGE('',*,*,#58,.F.);
#65=ORIENTED_EDGE('',*,*,#56,.T.);
#66=ORIENTED_EDGE('',*,*,#59,.F.);
#67=ORIENTED_EDGE('',*,*,#60,.F.);
#68=ORIENTED_EDGE('',*,*,#57,.T.);
#69=ORIENTED_EDGE('',*,*,#61,.F.);
#70=ORIENTED_EDGE('',*,*,#58,.T.);
#71=ORIENTED_EDGE('',*,*,#59,.T.);
#72=ORIENTED_EDGE('',*,*,#61,.T.);
#73=ORIENTED_EDGE('',*,*,#60,.T.);
#74=TOROIDAL_SURFACE('',#83,4.,0.8);
#75=ADVANCED_FACE('',(#26,#20),#74,.F.);
#76=ADVANCED_FACE('',(#27,#21),#17,.T.);
#77=ADVANCED_FACE('',(#28,#22),#18,.F.);
#78=ADVANCED_FACE('',(#29,#23),#19,.T.);
#79=ADVANCED_FACE('',(#30,#24),#15,.F.);
#80=ADVANCED_FACE('',(#31,#25),#16,.T.);
#81=CLOSED_SHELL('',(#75,#76,#77,#78,#79,#80));
#82=AXIS2_PLACEMENT_3D('placement',#121,#95,#96);
#83=AXIS2_PLACEMENT_3D('',#122,#97,#98);
#84=AXIS2_PLACEMENT_3D('',#124,#99,#100);
#85=AXIS2_PLACEMENT_3D('',#126,#101,#102);
#86=AXIS2_PLACEMENT_3D('',#127,#103,#104);
#87=AXIS2_PLACEMENT_3D('',#129,#105,#106);
#88=AXIS2_PLACEMENT_3D('',#130,#107,#108);
#89=AXIS2_PLACEMENT_3D('',#132,#109,#110);
#90=AXIS2_PLACEMENT_3D('',#134,#111,#112);
#91=AXIS2_PLACEMENT_3D('',#135,#113,#114);
#92=AXIS2_PLACEMENT_3D('',#137,#115,#116);
#93=AXIS2_PLACEMENT_3D('',#138,#117,#118);
#94=AXIS2_PLACEMENT_3D('',#139,#119,#120);
#95=DIRECTION('axis',(0.,0.,1.));
#96=DIRECTION('refdir',(1.,0.,0.));
#97=DIRECTION('center_axis',(0.,-1.,0.));
#98=DIRECTION('ref_axis',(0.,0.,-1.));
#99=DIRECTION('center_axis',(0.,-1.,0.));
#100=DIRECTION('ref_axis',(1.,0.,0.));
#101=DIRECTION('center_axis',(0.,1.,0.));
#102=DIRECTION('ref_axis',(1.,0.,0.));
#103=DIRECTION('center_axis',(0.,1.,0.));
#104=DIRECTION('ref_axis',(1.,0.,0.));
#105=DIRECTION('center_axis',(0.,-1.,0.));
#106=DIRECTION('ref_axis',(1.,0.,0.));
#107=DIRECTION('center_axis',(0.,1.,0.));
#108=DIRECTION('ref_axis',(-1.,0.,0.));
#109=DIRECTION('center_axis',(0.,1.,0.));
#110=DIRECTION('ref_axis',(-1.,0.,0.));
#111=DIRECTION('center_axis',(0.,-1.,0.));
#112=DIRECTION('ref_axis',(-1.,0.,0.));
#113=DIRECTION('center_axis',(0.,1.,0.));
#114=DIRECTION('ref_axis',(1.,0.,0.));
#115=DIRECTION('center_axis',(0.,1.,0.));
#116=DIRECTION('ref_axis',(1.,0.,0.));
#117=DIRECTION('center_axis',(0.,1.,0.));
#118=DIRECTION('ref_axis',(0.,0.,1.));
#119=DIRECTION('center_axis',(0.,1.,0.));
#120=DIRECTION('ref_axis',(0.,0.,1.));
#121=CARTESIAN_POINT('',(0.,0.,0.));
#122=CARTESIAN_POINT('Origin',(0.,1.3,0.));
#123=CARTESIAN_POINT('',(-4.,0.5,-4.89858719658941E-16));
#124=CARTESIAN_POINT('Origin',(0.,0.5,0.));
#125=CARTESIAN_POINT('',(-4.,2.1,4.89858719658941E-16));
#126=CARTESIAN_POINT('Origin',(0.,2.1,0.));
#127=CARTESIAN_POINT('Origin',(0.,0.,0.));
#128=CARTESIAN_POINT('',(-4.,0.,4.89858719658941E-16));
#129=CARTESIAN_POINT('Origin',(0.,0.,0.));
#130=CARTESIAN_POINT('Origin',(0.,-9.00861748874516,0.));
#131=CARTESIAN_POINT('',(1.5,0.,-1.83697019872103E-16));
#132=CARTESIAN_POINT('Origin',(0.,0.,0.));
#133=CARTESIAN_POINT('',(-1.5,2.6,0.));
#134=CARTESIAN_POINT('Origin',(0.,2.6,0.));
#135=CARTESIAN_POINT('Origin',(0.,0.,0.));
#136=CARTESIAN_POINT('',(-4.,2.6,4.89858719658941E-16));
#137=CARTESIAN_POINT('Origin',(0.,2.6,0.));
#138=CARTESIAN_POINT('Origin',(1.56469791703366E-16,0.,-5.78241158658936E-17));
#139=CARTESIAN_POINT('Origin',(1.56469791703366E-16,2.6,-5.78241158658936E-17));
#140=UNCERTAINTY_MEASURE_WITH_UNIT(LENGTH_MEASURE(0.01),#144,
'DISTANCE_ACCURACY_VALUE',
'Maximum model space distance between geometric entities at asserted c
onnectivities');
#141=UNCERTAINTY_MEASURE_WITH_UNIT(LENGTH_MEASURE(1.E-6),#144,
'DISTANCE_ACCURACY_VALUE',
'Maximum model space distance between geometric entities at asserted c
onnectivities');
#142=(
GEOMETRIC_REPRESENTATION_CONTEXT(3)
GLOBAL_UNCERTAINTY_ASSIGNED_CONTEXT((#140))
GLOBAL_UNIT_ASSIGNED_CONTEXT((#144,#147,#145))
REPRESENTATION_CONTEXT('','3D')
);
#143=(
GEOMETRIC_REPRESENTATION_CONTEXT(3)
GLOBAL_UNCERTAINTY_ASSIGNED_CONTEXT((#141))
GLOBAL_UNIT_ASSIGNED_CONTEXT((#144,#147,#145))
REPRESENTATION_CONTEXT('','3D')
);
#144=(
LENGTH_UNIT()
NAMED_UNIT(*)
SI_UNIT(.MILLI.,.METRE.)
);
#145=(
NAMED_UNIT(*)
SI_UNIT($,.STERADIAN.)
SOLID_ANGLE_UNIT()
);
#146=DIMENSIONAL_EXPONENTS(0.,0.,0.,0.,0.,0.,0.);
#147=(
CONVERSION_BASED_UNIT('degree',#149)
NAMED_UNIT(#146)
PLANE_ANGLE_UNIT()
);
#148=(
NAMED_UNIT(*)
PLANE_ANGLE_UNIT()
SI_UNIT($,.RADIAN.)
);
#149=PLANE_ANGLE_MEASURE_WITH_UNIT(PLANE_ANGLE_MEASURE(0.01745329252),#148);
#150=SHAPE_DEFINITION_REPRESENTATION(#151,#152);
#151=PRODUCT_DEFINITION_SHAPE('',$,#154);
#152=SHAPE_REPRESENTATION('',(#82),#142);
#153=DESIGN_CONTEXT('part definition',#158,'design');
#154=PRODUCT_DEFINITION('rea laiton diam8','rea laiton diam8',#155,#153);
#155=PRODUCT_DEFINITION_FORMATION('',$,#160);
#156=PRODUCT_RELATED_PRODUCT_CATEGORY('rea laiton diam8',
'rea laiton diam8',(#160));
#157=APPLICATION_PROTOCOL_DEFINITION('international standard',
'ap203_configuration_controlled_3d_design_of_mechanical_parts_and_asse
mblies_mim_lf',2004,#158);
#158=APPLICATION_CONTEXT(
'Configuration Controlled 3D Design of Mechanical Parts and Assemblies');
#159=MECHANICAL_CONTEXT('part definition',#158,'mechanical');
#160=PRODUCT('rea laiton diam8','rea laiton diam8',$,(#159));
#161=PRESENTATION_STYLE_ASSIGNMENT((#162));
#162=SURFACE_STYLE_USAGE(.BOTH.,#163);
#163=SURFACE_SIDE_STYLE('',(#164));
#164=SURFACE_STYLE_FILL_AREA(#165);
#165=FILL_AREA_STYLE('',(#166));
#166=FILL_AREA_STYLE_COLOUR('',#167);
#167=COLOUR_RGB('',0.749019607843137,0.749019607843137,0.749019607843137);
ENDSEC;
END-ISO-10303-21;
