ISO-10303-21;
HEADER;
/* Generated by software containing ST-Developer
 * from STEP Tools, Inc. (www.steptools.com) 
 */

FILE_DESCRIPTION(
/* description */ (''),
/* implementation_level */ '2;1');

FILE_NAME(
/* name */ 'C:/Users/Joshy/Downloads/T2 Tension Block v24.step',
/* time_stamp */ '2021-08-09T11:32:47-04:00',
/* author */ (''),
/* organization */ (''),
/* preprocessor_version */ 'ST-DEVELOPER v18.1',
/* originating_system */ 'Autodesk Translation Framework v10.9.0.1377',

/* authorisation */ '');

FILE_SCHEMA (('AUTOMOTIVE_DESIGN { 1 0 10303 214 3 1 1 }'));
ENDSEC;

DATA;
#10=MECHANICAL_DESIGN_GEOMETRIC_PRESENTATION_REPRESENTATION('',(#13),#559);
#11=SHAPE_REPRESENTATION_RELATIONSHIP('SRR','None',#569,#12);
#12=ADVANCED_BREP_SHAPE_REPRESENTATION('',(#14),#558);
#13=STYLED_ITEM('',(#578),#14);
#14=MANIFOLD_SOLID_BREP('Body3',#327);
#15=FACE_BOUND('',#54,.T.);
#16=FACE_BOUND('',#60,.T.);
#17=FACE_BOUND('',#61,.T.);
#18=FACE_BOUND('',#64,.T.);
#19=FACE_BOUND('',#65,.T.);
#20=FACE_BOUND('',#67,.T.);
#21=FACE_BOUND('',#72,.T.);
#22=FACE_BOUND('',#74,.T.);
#23=FACE_BOUND('',#75,.T.);
#24=FACE_BOUND('',#78,.T.);
#25=FACE_BOUND('',#79,.T.);
#26=PLANE('',#344);
#27=PLANE('',#357);
#28=PLANE('',#361);
#29=PLANE('',#362);
#30=PLANE('',#363);
#31=PLANE('',#367);
#32=PLANE('',#368);
#33=PLANE('',#369);
#34=PLANE('',#373);
#35=FACE_OUTER_BOUND('',#52,.T.);
#36=FACE_OUTER_BOUND('',#53,.T.);
#37=FACE_OUTER_BOUND('',#55,.T.);
#38=FACE_OUTER_BOUND('',#56,.T.);
#39=FACE_OUTER_BOUND('',#57,.T.);
#40=FACE_OUTER_BOUND('',#58,.T.);
#41=FACE_OUTER_BOUND('',#59,.T.);
#42=FACE_OUTER_BOUND('',#62,.T.);
#43=FACE_OUTER_BOUND('',#63,.T.);
#44=FACE_OUTER_BOUND('',#66,.T.);
#45=FACE_OUTER_BOUND('',#68,.T.);
#46=FACE_OUTER_BOUND('',#69,.T.);
#47=FACE_OUTER_BOUND('',#70,.T.);
#48=FACE_OUTER_BOUND('',#71,.T.);
#49=FACE_OUTER_BOUND('',#73,.T.);
#50=FACE_OUTER_BOUND('',#76,.T.);
#51=FACE_OUTER_BOUND('',#77,.T.);
#52=EDGE_LOOP('',(#218,#219,#220,#221));
#53=EDGE_LOOP('',(#222));
#54=EDGE_LOOP('',(#223));
#55=EDGE_LOOP('',(#224,#225,#226,#227));
#56=EDGE_LOOP('',(#228,#229,#230,#231));
#57=EDGE_LOOP('',(#232,#233,#234,#235));
#58=EDGE_LOOP('',(#236,#237,#238,#239));
#59=EDGE_LOOP('',(#240,#241,#242,#243));
#60=EDGE_LOOP('',(#244));
#61=EDGE_LOOP('',(#245));
#62=EDGE_LOOP('',(#246,#247,#248,#249));
#63=EDGE_LOOP('',(#250,#251,#252,#253));
#64=EDGE_LOOP('',(#254));
#65=EDGE_LOOP('',(#255));
#66=EDGE_LOOP('',(#256,#257,#258,#259));
#67=EDGE_LOOP('',(#260));
#68=EDGE_LOOP('',(#261,#262,#263,#264,#265,#266,#267,#268));
#69=EDGE_LOOP('',(#269,#270,#271,#272));
#70=EDGE_LOOP('',(#273,#274,#275,#276,#277,#278,#279,#280));
#71=EDGE_LOOP('',(#281,#282,#283,#284));
#72=EDGE_LOOP('',(#285));
#73=EDGE_LOOP('',(#286,#287,#288,#289));
#74=EDGE_LOOP('',(#290));
#75=EDGE_LOOP('',(#291));
#76=EDGE_LOOP('',(#292,#293,#294,#295));
#77=EDGE_LOOP('',(#296,#297,#298,#299));
#78=EDGE_LOOP('',(#300));
#79=EDGE_LOOP('',(#301));
#80=LINE('',#473,#106);
#81=LINE('',#483,#107);
#82=LINE('',#486,#108);
#83=LINE('',#492,#109);
#84=LINE('',#498,#110);
#85=LINE('',#505,#111);
#86=LINE('',#507,#112);
#87=LINE('',#508,#113);
#88=LINE('',#511,#114);
#89=LINE('',#514,#115);
#90=LINE('',#517,#116);
#91=LINE('',#519,#117);
#92=LINE('',#520,#118);
#93=LINE('',#523,#119);
#94=LINE('',#525,#120);
#95=LINE('',#526,#121);
#96=LINE('',#529,#122);
#97=LINE('',#531,#123);
#98=LINE('',#533,#124);
#99=LINE('',#534,#125);
#100=LINE('',#539,#126);
#101=LINE('',#543,#127);
#102=LINE('',#545,#128);
#103=LINE('',#547,#129);
#104=LINE('',#548,#130);
#105=LINE('',#550,#131);
#106=VECTOR('',#380,0.0675);
#107=VECTOR('',#393,0.14);
#108=VECTOR('',#396,0.0885);
#109=VECTOR('',#403,0.0625);
#110=VECTOR('',#410,0.0755);
#111=VECTOR('',#417,0.393700787401575);
#112=VECTOR('',#418,0.393700787401575);
#113=VECTOR('',#419,0.393700787401575);
#114=VECTOR('',#422,0.393700787401575);
#115=VECTOR('',#425,0.393700787401575);
#116=VECTOR('',#428,0.393700787401575);
#117=VECTOR('',#429,0.393700787401575);
#118=VECTOR('',#430,0.393700787401575);
#119=VECTOR('',#433,0.393700787401575);
#120=VECTOR('',#434,0.393700787401575);
#121=VECTOR('',#435,0.393700787401575);
#122=VECTOR('',#438,0.393700787401575);
#123=VECTOR('',#439,0.393700787401575);
#124=VECTOR('',#440,0.393700787401575);
#125=VECTOR('',#441,0.393700787401575);
#126=VECTOR('',#446,0.0755);
#127=VECTOR('',#451,0.393700787401575);
#128=VECTOR('',#452,0.393700787401575);
#129=VECTOR('',#453,0.393700787401575);
#130=VECTOR('',#454,0.393700787401575);
#131=VECTOR('',#457,0.393700787401575);
#132=CIRCLE('',#342,0.06725);
#133=CIRCLE('',#343,0.06725);
#134=CIRCLE('',#345,0.14);
#135=CIRCLE('',#346,0.0885);
#136=CIRCLE('',#348,0.14);
#137=CIRCLE('',#350,0.0885);
#138=CIRCLE('',#352,0.0625);
#139=CIRCLE('',#353,0.0625);
#140=CIRCLE('',#355,0.08);
#141=CIRCLE('',#356,0.08);
#142=CIRCLE('',#358,0.225);
#143=CIRCLE('',#360,0.225);
#144=CIRCLE('',#365,0.08);
#145=CIRCLE('',#366,0.08);
#146=CIRCLE('',#370,0.225);
#147=CIRCLE('',#372,0.225);
#148=VERTEX_POINT('',#470);
#149=VERTEX_POINT('',#472);
#150=VERTEX_POINT('',#476);
#151=VERTEX_POINT('',#478);
#152=VERTEX_POINT('',#481);
#153=VERTEX_POINT('',#485);
#154=VERTEX_POINT('',#489);
#155=VERTEX_POINT('',#491);
#156=VERTEX_POINT('',#495);
#157=VERTEX_POINT('',#497);
#158=VERTEX_POINT('',#501);
#159=VERTEX_POINT('',#502);
#160=VERTEX_POINT('',#504);
#161=VERTEX_POINT('',#506);
#162=VERTEX_POINT('',#510);
#163=VERTEX_POINT('',#512);
#164=VERTEX_POINT('',#516);
#165=VERTEX_POINT('',#518);
#166=VERTEX_POINT('',#522);
#167=VERTEX_POINT('',#524);
#168=VERTEX_POINT('',#528);
#169=VERTEX_POINT('',#530);
#170=VERTEX_POINT('',#532);
#171=VERTEX_POINT('',#536);
#172=VERTEX_POINT('',#538);
#173=VERTEX_POINT('',#542);
#174=VERTEX_POINT('',#544);
#175=VERTEX_POINT('',#546);
#176=EDGE_CURVE('',#148,#148,#132,.T.);
#177=EDGE_CURVE('',#148,#149,#80,.T.);
#178=EDGE_CURVE('',#149,#149,#133,.F.);
#179=EDGE_CURVE('',#150,#150,#134,.T.);
#180=EDGE_CURVE('',#151,#151,#135,.T.);
#181=EDGE_CURVE('',#152,#152,#136,.T.);
#182=EDGE_CURVE('',#152,#150,#81,.T.);
#183=EDGE_CURVE('',#151,#153,#82,.T.);
#184=EDGE_CURVE('',#153,#153,#137,.T.);
#185=EDGE_CURVE('',#154,#154,#138,.T.);
#186=EDGE_CURVE('',#154,#155,#83,.T.);
#187=EDGE_CURVE('',#155,#155,#139,.T.);
#188=EDGE_CURVE('',#156,#156,#140,.T.);
#189=EDGE_CURVE('',#156,#157,#84,.T.);
#190=EDGE_CURVE('',#157,#157,#141,.F.);
#191=EDGE_CURVE('',#158,#159,#142,.T.);
#192=EDGE_CURVE('',#159,#160,#85,.T.);
#193=EDGE_CURVE('',#160,#161,#86,.T.);
#194=EDGE_CURVE('',#161,#158,#87,.T.);
#195=EDGE_CURVE('',#162,#158,#88,.T.);
#196=EDGE_CURVE('',#163,#162,#143,.T.);
#197=EDGE_CURVE('',#163,#159,#89,.T.);
#198=EDGE_CURVE('',#162,#164,#90,.T.);
#199=EDGE_CURVE('',#164,#165,#91,.T.);
#200=EDGE_CURVE('',#165,#163,#92,.T.);
#201=EDGE_CURVE('',#166,#164,#93,.T.);
#202=EDGE_CURVE('',#166,#167,#94,.T.);
#203=EDGE_CURVE('',#167,#165,#95,.T.);
#204=EDGE_CURVE('',#161,#168,#96,.T.);
#205=EDGE_CURVE('',#168,#169,#97,.T.);
#206=EDGE_CURVE('',#170,#169,#98,.T.);
#207=EDGE_CURVE('',#170,#166,#99,.T.);
#208=EDGE_CURVE('',#171,#171,#144,.T.);
#209=EDGE_CURVE('',#171,#172,#100,.T.);
#210=EDGE_CURVE('',#172,#172,#145,.F.);
#211=EDGE_CURVE('',#167,#173,#101,.T.);
#212=EDGE_CURVE('',#173,#174,#102,.T.);
#213=EDGE_CURVE('',#174,#175,#103,.T.);
#214=EDGE_CURVE('',#175,#160,#104,.T.);
#215=EDGE_CURVE('',#175,#168,#105,.T.);
#216=EDGE_CURVE('',#169,#174,#146,.T.);
#217=EDGE_CURVE('',#173,#170,#147,.T.);
#218=ORIENTED_EDGE('',*,*,#176,.F.);
#219=ORIENTED_EDGE('',*,*,#177,.T.);
#220=ORIENTED_EDGE('',*,*,#178,.F.);
#221=ORIENTED_EDGE('',*,*,#177,.F.);
#222=ORIENTED_EDGE('',*,*,#179,.F.);
#223=ORIENTED_EDGE('',*,*,#180,.T.);
#224=ORIENTED_EDGE('',*,*,#181,.F.);
#225=ORIENTED_EDGE('',*,*,#182,.T.);
#226=ORIENTED_EDGE('',*,*,#179,.T.);
#227=ORIENTED_EDGE('',*,*,#182,.F.);
#228=ORIENTED_EDGE('',*,*,#180,.F.);
#229=ORIENTED_EDGE('',*,*,#183,.T.);
#230=ORIENTED_EDGE('',*,*,#184,.F.);
#231=ORIENTED_EDGE('',*,*,#183,.F.);
#232=ORIENTED_EDGE('',*,*,#185,.F.);
#233=ORIENTED_EDGE('',*,*,#186,.T.);
#234=ORIENTED_EDGE('',*,*,#187,.F.);
#235=ORIENTED_EDGE('',*,*,#186,.F.);
#236=ORIENTED_EDGE('',*,*,#188,.T.);
#237=ORIENTED_EDGE('',*,*,#189,.T.);
#238=ORIENTED_EDGE('',*,*,#190,.T.);
#239=ORIENTED_EDGE('',*,*,#189,.F.);
#240=ORIENTED_EDGE('',*,*,#191,.T.);
#241=ORIENTED_EDGE('',*,*,#192,.T.);
#242=ORIENTED_EDGE('',*,*,#193,.T.);
#243=ORIENTED_EDGE('',*,*,#194,.T.);
#244=ORIENTED_EDGE('',*,*,#178,.T.);
#245=ORIENTED_EDGE('',*,*,#190,.F.);
#246=ORIENTED_EDGE('',*,*,#191,.F.);
#247=ORIENTED_EDGE('',*,*,#195,.F.);
#248=ORIENTED_EDGE('',*,*,#196,.F.);
#249=ORIENTED_EDGE('',*,*,#197,.T.);
#250=ORIENTED_EDGE('',*,*,#198,.T.);
#251=ORIENTED_EDGE('',*,*,#199,.T.);
#252=ORIENTED_EDGE('',*,*,#200,.T.);
#253=ORIENTED_EDGE('',*,*,#196,.T.);
#254=ORIENTED_EDGE('',*,*,#176,.T.);
#255=ORIENTED_EDGE('',*,*,#188,.F.);
#256=ORIENTED_EDGE('',*,*,#201,.F.);
#257=ORIENTED_EDGE('',*,*,#202,.T.);
#258=ORIENTED_EDGE('',*,*,#203,.T.);
#259=ORIENTED_EDGE('',*,*,#199,.F.);
#260=ORIENTED_EDGE('',*,*,#185,.T.);
#261=ORIENTED_EDGE('',*,*,#204,.T.);
#262=ORIENTED_EDGE('',*,*,#205,.T.);
#263=ORIENTED_EDGE('',*,*,#206,.F.);
#264=ORIENTED_EDGE('',*,*,#207,.T.);
#265=ORIENTED_EDGE('',*,*,#201,.T.);
#266=ORIENTED_EDGE('',*,*,#198,.F.);
#267=ORIENTED_EDGE('',*,*,#195,.T.);
#268=ORIENTED_EDGE('',*,*,#194,.F.);
#269=ORIENTED_EDGE('',*,*,#208,.F.);
#270=ORIENTED_EDGE('',*,*,#209,.T.);
#271=ORIENTED_EDGE('',*,*,#210,.F.);
#272=ORIENTED_EDGE('',*,*,#209,.F.);
#273=ORIENTED_EDGE('',*,*,#203,.F.);
#274=ORIENTED_EDGE('',*,*,#211,.T.);
#275=ORIENTED_EDGE('',*,*,#212,.T.);
#276=ORIENTED_EDGE('',*,*,#213,.T.);
#277=ORIENTED_EDGE('',*,*,#214,.T.);
#278=ORIENTED_EDGE('',*,*,#192,.F.);
#279=ORIENTED_EDGE('',*,*,#197,.F.);
#280=ORIENTED_EDGE('',*,*,#200,.F.);
#281=ORIENTED_EDGE('',*,*,#214,.F.);
#282=ORIENTED_EDGE('',*,*,#215,.T.);
#283=ORIENTED_EDGE('',*,*,#204,.F.);
#284=ORIENTED_EDGE('',*,*,#193,.F.);
#285=ORIENTED_EDGE('',*,*,#187,.T.);
#286=ORIENTED_EDGE('',*,*,#216,.F.);
#287=ORIENTED_EDGE('',*,*,#205,.F.);
#288=ORIENTED_EDGE('',*,*,#215,.F.);
#289=ORIENTED_EDGE('',*,*,#213,.F.);
#290=ORIENTED_EDGE('',*,*,#184,.T.);
#291=ORIENTED_EDGE('',*,*,#210,.T.);
#292=ORIENTED_EDGE('',*,*,#216,.T.);
#293=ORIENTED_EDGE('',*,*,#212,.F.);
#294=ORIENTED_EDGE('',*,*,#217,.T.);
#295=ORIENTED_EDGE('',*,*,#206,.T.);
#296=ORIENTED_EDGE('',*,*,#207,.F.);
#297=ORIENTED_EDGE('',*,*,#217,.F.);
#298=ORIENTED_EDGE('',*,*,#211,.F.);
#299=ORIENTED_EDGE('',*,*,#202,.F.);
#300=ORIENTED_EDGE('',*,*,#181,.T.);
#301=ORIENTED_EDGE('',*,*,#208,.T.);
#302=CYLINDRICAL_SURFACE('',#341,0.06725);
#303=CYLINDRICAL_SURFACE('',#347,0.14);
#304=CYLINDRICAL_SURFACE('',#349,0.0885);
#305=CYLINDRICAL_SURFACE('',#351,0.0625);
#306=CYLINDRICAL_SURFACE('',#354,0.08);
#307=CYLINDRICAL_SURFACE('',#359,0.225);
#308=CYLINDRICAL_SURFACE('',#364,0.08);
#309=CYLINDRICAL_SURFACE('',#371,0.225);
#310=ADVANCED_FACE('',(#35),#302,.F.);
#311=ADVANCED_FACE('',(#36,#15),#26,.F.);
#312=ADVANCED_FACE('',(#37),#303,.F.);
#313=ADVANCED_FACE('',(#38),#304,.F.);
#314=ADVANCED_FACE('',(#39),#305,.F.);
#315=ADVANCED_FACE('',(#40),#306,.F.);
#316=ADVANCED_FACE('',(#41,#16,#17),#27,.T.);
#317=ADVANCED_FACE('',(#42),#307,.T.);
#318=ADVANCED_FACE('',(#43,#18,#19),#28,.F.);
#319=ADVANCED_FACE('',(#44,#20),#29,.T.);
#320=ADVANCED_FACE('',(#45),#30,.T.);
#321=ADVANCED_FACE('',(#46),#308,.F.);
#322=ADVANCED_FACE('',(#47),#31,.T.);
#323=ADVANCED_FACE('',(#48,#21),#32,.F.);
#324=ADVANCED_FACE('',(#49,#22,#23),#33,.F.);
#325=ADVANCED_FACE('',(#50),#309,.T.);
#326=ADVANCED_FACE('',(#51,#24,#25),#34,.T.);
#327=CLOSED_SHELL('',(#310,#311,#312,#313,#314,#315,#316,#317,#318,#319,
#320,#321,#322,#323,#324,#325,#326));
#328=DERIVED_UNIT_ELEMENT(#330,1.);
#329=DERIVED_UNIT_ELEMENT(#563,-3.);
#330=(
MASS_UNIT()
NAMED_UNIT(*)
SI_UNIT(.KILO.,.GRAM.)
);
#331=DERIVED_UNIT((#328,#329));
#332=MEASURE_REPRESENTATION_ITEM('density measure',
POSITIVE_RATIO_MEASURE(2700.),#331);
#333=PROPERTY_DEFINITION_REPRESENTATION(#338,#335);
#334=PROPERTY_DEFINITION_REPRESENTATION(#339,#336);
#335=REPRESENTATION('material name',(#337),#558);
#336=REPRESENTATION('density',(#332),#558);
#337=DESCRIPTIVE_REPRESENTATION_ITEM('Aluminum, Anodized Green',
'Aluminum, Anodized Green');
#338=PROPERTY_DEFINITION('material property','material name',#571);
#339=PROPERTY_DEFINITION('material property','density of part',#571);
#340=AXIS2_PLACEMENT_3D('placement',#468,#374,#375);
#341=AXIS2_PLACEMENT_3D('',#469,#376,#377);
#342=AXIS2_PLACEMENT_3D('',#471,#378,#379);
#343=AXIS2_PLACEMENT_3D('',#474,#381,#382);
#344=AXIS2_PLACEMENT_3D('',#475,#383,#384);
#345=AXIS2_PLACEMENT_3D('',#477,#385,#386);
#346=AXIS2_PLACEMENT_3D('',#479,#387,#388);
#347=AXIS2_PLACEMENT_3D('',#480,#389,#390);
#348=AXIS2_PLACEMENT_3D('',#482,#391,#392);
#349=AXIS2_PLACEMENT_3D('',#484,#394,#395);
#350=AXIS2_PLACEMENT_3D('',#487,#397,#398);
#351=AXIS2_PLACEMENT_3D('',#488,#399,#400);
#352=AXIS2_PLACEMENT_3D('',#490,#401,#402);
#353=AXIS2_PLACEMENT_3D('',#493,#404,#405);
#354=AXIS2_PLACEMENT_3D('',#494,#406,#407);
#355=AXIS2_PLACEMENT_3D('',#496,#408,#409);
#356=AXIS2_PLACEMENT_3D('',#499,#411,#412);
#357=AXIS2_PLACEMENT_3D('',#500,#413,#414);
#358=AXIS2_PLACEMENT_3D('',#503,#415,#416);
#359=AXIS2_PLACEMENT_3D('',#509,#420,#421);
#360=AXIS2_PLACEMENT_3D('',#513,#423,#424);
#361=AXIS2_PLACEMENT_3D('',#515,#426,#427);
#362=AXIS2_PLACEMENT_3D('',#521,#431,#432);
#363=AXIS2_PLACEMENT_3D('',#527,#436,#437);
#364=AXIS2_PLACEMENT_3D('',#535,#442,#443);
#365=AXIS2_PLACEMENT_3D('',#537,#444,#445);
#366=AXIS2_PLACEMENT_3D('',#540,#447,#448);
#367=AXIS2_PLACEMENT_3D('',#541,#449,#450);
#368=AXIS2_PLACEMENT_3D('',#549,#455,#456);
#369=AXIS2_PLACEMENT_3D('',#551,#458,#459);
#370=AXIS2_PLACEMENT_3D('',#552,#460,#461);
#371=AXIS2_PLACEMENT_3D('',#553,#462,#463);
#372=AXIS2_PLACEMENT_3D('',#554,#464,#465);
#373=AXIS2_PLACEMENT_3D('',#555,#466,#467);
#374=DIRECTION('axis',(0.,0.,1.));
#375=DIRECTION('refdir',(1.,0.,0.));
#376=DIRECTION('center_axis',(0.,0.,1.));
#377=DIRECTION('ref_axis',(-1.,0.,0.));
#378=DIRECTION('center_axis',(0.,0.,1.));
#379=DIRECTION('ref_axis',(-1.,0.,0.));
#380=DIRECTION('',(0.,0.,1.));
#381=DIRECTION('center_axis',(0.,0.,1.));
#382=DIRECTION('ref_axis',(-1.,0.,0.));
#383=DIRECTION('center_axis',(0.,0.,-1.));
#384=DIRECTION('ref_axis',(1.,0.,0.));
#385=DIRECTION('center_axis',(0.,0.,-1.));
#386=DIRECTION('ref_axis',(1.,0.,0.));
#387=DIRECTION('center_axis',(0.,0.,-1.));
#388=DIRECTION('ref_axis',(1.,0.,0.));
#389=DIRECTION('center_axis',(0.,0.,-1.));
#390=DIRECTION('ref_axis',(1.,0.,0.));
#391=DIRECTION('center_axis',(0.,0.,-1.));
#392=DIRECTION('ref_axis',(1.,0.,0.));
#393=DIRECTION('',(0.,0.,-1.));
#394=DIRECTION('center_axis',(0.,0.,-1.));
#395=DIRECTION('ref_axis',(1.,0.,0.));
#396=DIRECTION('',(0.,0.,-1.));
#397=DIRECTION('center_axis',(0.,0.,1.));
#398=DIRECTION('ref_axis',(1.,0.,0.));
#399=DIRECTION('center_axis',(0.,-1.,0.));
#400=DIRECTION('ref_axis',(-1.,0.,0.));
#401=DIRECTION('center_axis',(0.,-1.,0.));
#402=DIRECTION('ref_axis',(-1.,0.,0.));
#403=DIRECTION('',(0.,-1.,0.));
#404=DIRECTION('center_axis',(0.,1.,0.));
#405=DIRECTION('ref_axis',(-1.,0.,0.));
#406=DIRECTION('center_axis',(0.,0.,-1.));
#407=DIRECTION('ref_axis',(1.,0.,0.));
#408=DIRECTION('center_axis',(0.,0.,-1.));
#409=DIRECTION('ref_axis',(1.,0.,0.));
#410=DIRECTION('',(0.,0.,1.));
#411=DIRECTION('center_axis',(0.,0.,-1.));
#412=DIRECTION('ref_axis',(1.,0.,0.));
#413=DIRECTION('center_axis',(0.,0.,1.));
#414=DIRECTION('ref_axis',(1.,0.,0.));
#415=DIRECTION('center_axis',(0.,0.,1.));
#416=DIRECTION('ref_axis',(1.,0.,0.));
#417=DIRECTION('',(-1.07077984517205E-14,1.,0.));
#418=DIRECTION('',(-1.,0.,0.));
#419=DIRECTION('',(0.,-1.,0.));
#420=DIRECTION('center_axis',(0.,0.,-1.));
#421=DIRECTION('ref_axis',(1.,0.,0.));
#422=DIRECTION('',(0.,0.,1.));
#423=DIRECTION('center_axis',(0.,0.,-1.));
#424=DIRECTION('ref_axis',(1.,0.,0.));
#425=DIRECTION('',(0.,0.,1.));
#426=DIRECTION('center_axis',(0.,0.,1.));
#427=DIRECTION('ref_axis',(1.,0.,0.));
#428=DIRECTION('',(0.,1.,0.));
#429=DIRECTION('',(1.,0.,0.));
#430=DIRECTION('',(1.07077984517205E-14,-1.,0.));
#431=DIRECTION('center_axis',(0.,1.,0.));
#432=DIRECTION('ref_axis',(1.,0.,0.));
#433=DIRECTION('',(0.,0.,-1.));
#434=DIRECTION('',(1.,0.,0.));
#435=DIRECTION('',(0.,0.,-1.));
#436=DIRECTION('center_axis',(-1.,0.,0.));
#437=DIRECTION('ref_axis',(0.,1.,0.));
#438=DIRECTION('',(0.,0.,1.));
#439=DIRECTION('',(0.,-1.,0.));
#440=DIRECTION('',(0.,0.,-1.));
#441=DIRECTION('',(0.,1.,0.));
#442=DIRECTION('center_axis',(0.,0.,-1.));
#443=DIRECTION('ref_axis',(1.,0.,0.));
#444=DIRECTION('center_axis',(0.,0.,-1.));
#445=DIRECTION('ref_axis',(1.,0.,0.));
#446=DIRECTION('',(0.,0.,-1.));
#447=DIRECTION('center_axis',(0.,0.,-1.));
#448=DIRECTION('ref_axis',(1.,0.,0.));
#449=DIRECTION('center_axis',(1.,1.07077984517205E-14,0.));
#450=DIRECTION('ref_axis',(1.07077984517205E-14,-1.,0.));
#451=DIRECTION('',(1.07077984517205E-14,-1.,0.));
#452=DIRECTION('',(0.,0.,-1.));
#453=DIRECTION('',(-1.07077984517205E-14,1.,0.));
#454=DIRECTION('',(0.,0.,-1.));
#455=DIRECTION('center_axis',(0.,1.,0.));
#456=DIRECTION('ref_axis',(-1.,0.,0.));
#457=DIRECTION('',(-1.,0.,0.));
#458=DIRECTION('center_axis',(0.,0.,1.));
#459=DIRECTION('ref_axis',(1.,0.,0.));
#460=DIRECTION('center_axis',(0.,0.,1.));
#461=DIRECTION('ref_axis',(1.,0.,0.));
#462=DIRECTION('center_axis',(0.,0.,-1.));
#463=DIRECTION('ref_axis',(1.,0.,0.));
#464=DIRECTION('center_axis',(0.,0.,-1.));
#465=DIRECTION('ref_axis',(1.,0.,0.));
#466=DIRECTION('center_axis',(0.,0.,1.));
#467=DIRECTION('ref_axis',(1.,0.,0.));
#468=CARTESIAN_POINT('',(0.,0.,0.));
#469=CARTESIAN_POINT('Origin',(0.,-0.38625,-0.173));
#470=CARTESIAN_POINT('',(0.06725,-0.38625,-0.373));
#471=CARTESIAN_POINT('Origin',(0.,-0.38625,-0.373));
#472=CARTESIAN_POINT('',(0.06725,-0.38625,-0.22075));
#473=CARTESIAN_POINT('',(0.06725,-0.38625,-0.173));
#474=CARTESIAN_POINT('Origin',(0.,-0.38625,-0.22075));
#475=CARTESIAN_POINT('Origin',(-2.18547839493141E-17,-0.38625,0.283));
#476=CARTESIAN_POINT('',(-0.14,-0.38625,0.283));
#477=CARTESIAN_POINT('Origin',(-2.18547839493141E-17,-0.38625,0.283));
#478=CARTESIAN_POINT('',(-0.0885,-0.38625,0.283));
#479=CARTESIAN_POINT('Origin',(-2.18547839493141E-17,-0.38625,0.283));
#480=CARTESIAN_POINT('Origin',(-2.18547839493141E-17,-0.38625,0.328));
#481=CARTESIAN_POINT('',(-0.14,-0.38625,0.373));
#482=CARTESIAN_POINT('Origin',(-2.18547839493141E-17,-0.38625,0.373));
#483=CARTESIAN_POINT('',(-0.14,-0.38625,0.328));
#484=CARTESIAN_POINT('Origin',(-2.18547839493141E-17,-0.38625,0.173));
#485=CARTESIAN_POINT('',(-0.0885,-0.38625,0.22075));
#486=CARTESIAN_POINT('',(-0.0885,-0.38625,0.173));
#487=CARTESIAN_POINT('Origin',(-2.18547839493141E-17,-0.38625,0.22075));
#488=CARTESIAN_POINT('Origin',(0.,0.1,0.));
#489=CARTESIAN_POINT('',(0.0625,0.1,-7.65404249467096E-18));
#490=CARTESIAN_POINT('Origin',(0.,0.1,0.));
#491=CARTESIAN_POINT('',(0.0625,-0.05625,-7.65404249467096E-18));
#492=CARTESIAN_POINT('',(0.0625,0.1,7.65404249467096E-18));
#493=CARTESIAN_POINT('Origin',(0.,-0.05625,0.));
#494=CARTESIAN_POINT('Origin',(-1.69845790371158E-33,-0.14375,-0.132375));
#495=CARTESIAN_POINT('',(-0.08,-0.14375,-0.373));
#496=CARTESIAN_POINT('Origin',(-1.69845790371158E-33,-0.14375,-0.373));
#497=CARTESIAN_POINT('',(-0.08,-0.14375,-0.22075));
#498=CARTESIAN_POINT('',(-0.08,-0.14375,-0.132375));
#499=CARTESIAN_POINT('Origin',(-1.69845790371158E-33,-0.14375,-0.22075));
#500=CARTESIAN_POINT('Origin',(-4.37095678986282E-17,-0.33375,-0.22075));
#501=CARTESIAN_POINT('',(-0.225000000000003,-0.38625000000002,-0.22075));
#502=CARTESIAN_POINT('',(0.225000000000003,-0.38625000000002,-0.22075));
#503=CARTESIAN_POINT('Origin',(0.,-0.38625,-0.22075));
#504=CARTESIAN_POINT('',(0.225,-0.05625,-0.22075));
#505=CARTESIAN_POINT('',(0.225,-0.116874999999999,-0.22075));
#506=CARTESIAN_POINT('',(-0.225,-0.05625,-0.22075));
#507=CARTESIAN_POINT('',(0.225,-0.05625,-0.22075));
#508=CARTESIAN_POINT('',(-0.225,-0.36000000000001,-0.22075));
#509=CARTESIAN_POINT('Origin',(0.,-0.38625,-0.373));
#510=CARTESIAN_POINT('',(-0.225000000000003,-0.38625000000002,-0.373));
#511=CARTESIAN_POINT('',(-0.225000000000003,-0.38625000000002,-0.373));
#512=CARTESIAN_POINT('',(0.225000000000003,-0.38625000000002,-0.373));
#513=CARTESIAN_POINT('Origin',(0.,-0.38625,-0.373));
#514=CARTESIAN_POINT('',(0.225000000000003,-0.38625000000002,-0.373));
#515=CARTESIAN_POINT('Origin',(-2.18547839493141E-17,-0.255625,-0.373));
#516=CARTESIAN_POINT('',(-0.225,0.1,-0.373));
#517=CARTESIAN_POINT('',(-0.225,-0.0778125,-0.373));
#518=CARTESIAN_POINT('',(0.225,0.1,-0.373));
#519=CARTESIAN_POINT('',(0.1125,0.1,-0.373));
#520=CARTESIAN_POINT('',(0.225000000000002,-0.320937500000009,-0.373));
#521=CARTESIAN_POINT('Origin',(-0.225,0.1,0.373));
#522=CARTESIAN_POINT('',(-0.225,0.1,0.373));
#523=CARTESIAN_POINT('',(-0.225,0.1,0.373));
#524=CARTESIAN_POINT('',(0.225,0.1,0.373));
#525=CARTESIAN_POINT('',(0.1125,0.1,0.373));
#526=CARTESIAN_POINT('',(0.225,0.1,0.373));
#527=CARTESIAN_POINT('Origin',(-0.225,-0.38625000000002,0.373));
#528=CARTESIAN_POINT('',(-0.225,-0.05625,0.22075));
#529=CARTESIAN_POINT('',(-0.225,-0.05625,0.1865));
#530=CARTESIAN_POINT('',(-0.225000000000003,-0.38625000000002,0.22075));
#531=CARTESIAN_POINT('',(-0.225,-0.36000000000001,0.22075));
#532=CARTESIAN_POINT('',(-0.225000000000003,-0.38625000000002,0.373));
#533=CARTESIAN_POINT('',(-0.225000000000003,-0.38625000000002,0.373));
#534=CARTESIAN_POINT('',(-0.225,-0.0778125,0.373));
#535=CARTESIAN_POINT('Origin',(-1.69845790371158E-33,-0.14375,0.132375));
#536=CARTESIAN_POINT('',(-0.08,-0.14375,0.373));
#537=CARTESIAN_POINT('Origin',(-1.69845790371158E-33,-0.14375,0.373));
#538=CARTESIAN_POINT('',(-0.08,-0.14375,0.22075));
#539=CARTESIAN_POINT('',(-0.08,-0.14375,0.132375));
#540=CARTESIAN_POINT('Origin',(-1.69845790371158E-33,-0.14375,0.22075));
#541=CARTESIAN_POINT('Origin',(0.224999999999998,0.1,0.373));
#542=CARTESIAN_POINT('',(0.225000000000003,-0.38625000000002,0.373));
#543=CARTESIAN_POINT('',(0.225000000000002,-0.320937500000009,0.373));
#544=CARTESIAN_POINT('',(0.225000000000003,-0.38625000000002,0.22075));
#545=CARTESIAN_POINT('',(0.225000000000003,-0.38625000000002,0.373));
#546=CARTESIAN_POINT('',(0.225,-0.05625,0.22075));
#547=CARTESIAN_POINT('',(0.225,-0.116874999999999,0.22075));
#548=CARTESIAN_POINT('',(0.224999999999999,-0.05625,0.1865));
#549=CARTESIAN_POINT('Origin',(0.225,-0.05625,0.));
#550=CARTESIAN_POINT('',(0.225,-0.05625,0.22075));
#551=CARTESIAN_POINT('Origin',(-4.37095678986282E-17,-0.33375,0.22075));
#552=CARTESIAN_POINT('Origin',(0.,-0.38625,0.22075));
#553=CARTESIAN_POINT('Origin',(0.,-0.38625,0.373));
#554=CARTESIAN_POINT('Origin',(0.,-0.38625,0.373));
#555=CARTESIAN_POINT('Origin',(-2.18547839493141E-17,-0.255625,0.373));
#556=UNCERTAINTY_MEASURE_WITH_UNIT(LENGTH_MEASURE(0.000393700787401575),
#561,'DISTANCE_ACCURACY_VALUE',
'Maximum model space distance between geometric entities at asserted c
onnectivities');
#557=UNCERTAINTY_MEASURE_WITH_UNIT(LENGTH_MEASURE(0.000393700787401575),
#561,'DISTANCE_ACCURACY_VALUE',
'Maximum model space distance between geometric entities at asserted c
onnectivities');
#558=(
GEOMETRIC_REPRESENTATION_CONTEXT(3)
GLOBAL_UNCERTAINTY_ASSIGNED_CONTEXT((#556))
GLOBAL_UNIT_ASSIGNED_CONTEXT((#561,#565,#566))
REPRESENTATION_CONTEXT('','3D')
);
#559=(
GEOMETRIC_REPRESENTATION_CONTEXT(3)
GLOBAL_UNCERTAINTY_ASSIGNED_CONTEXT((#557))
GLOBAL_UNIT_ASSIGNED_CONTEXT((#561,#565,#566))
REPRESENTATION_CONTEXT('','3D')
);
#560=DIMENSIONAL_EXPONENTS(1.,0.,0.,0.,0.,0.,0.);
#561=(
CONVERSION_BASED_UNIT('inch',#564)
LENGTH_UNIT()
NAMED_UNIT(#560)
);
#562=(
LENGTH_UNIT()
NAMED_UNIT(*)
SI_UNIT(.MILLI.,.METRE.)
);
#563=(
LENGTH_UNIT()
NAMED_UNIT(*)
SI_UNIT($,.METRE.)
);
#564=LENGTH_MEASURE_WITH_UNIT(LENGTH_MEASURE(25.4),#562);
#565=(
NAMED_UNIT(*)
PLANE_ANGLE_UNIT()
SI_UNIT($,.RADIAN.)
);
#566=(
NAMED_UNIT(*)
SI_UNIT($,.STERADIAN.)
SOLID_ANGLE_UNIT()
);
#567=SHAPE_DEFINITION_REPRESENTATION(#568,#569);
#568=PRODUCT_DEFINITION_SHAPE('',$,#571);
#569=SHAPE_REPRESENTATION('',(#340),#558);
#570=PRODUCT_DEFINITION_CONTEXT('part definition',#575,'design');
#571=PRODUCT_DEFINITION('T2 Tension Block','T2 Tension Block v24',#572,
#570);
#572=PRODUCT_DEFINITION_FORMATION('',$,#577);
#573=PRODUCT_RELATED_PRODUCT_CATEGORY('T2 Tension Block v24',
'T2 Tension Block v24',(#577));
#574=APPLICATION_PROTOCOL_DEFINITION('international standard',
'automotive_design',2009,#575);
#575=APPLICATION_CONTEXT(
'Core Data for Automotive Mechanical Design Process');
#576=PRODUCT_CONTEXT('part definition',#575,'mechanical');
#577=PRODUCT('T2 Tension Block','T2 Tension Block v24',$,(#576));
#578=PRESENTATION_STYLE_ASSIGNMENT((#579));
#579=SURFACE_STYLE_USAGE(.BOTH.,#580);
#580=SURFACE_SIDE_STYLE('',(#581));
#581=SURFACE_STYLE_FILL_AREA(#582);
#582=FILL_AREA_STYLE('Aluminum - Anodized Glossy (Red)',(#583));
#583=FILL_AREA_STYLE_COLOUR('Aluminum - Anodized Glossy (Red)',#584);
#584=COLOUR_RGB('Aluminum - Anodized Glossy (Red)',0.325490196078431,0.854901960784314,
0.474509803921569);
ENDSEC;
END-ISO-10303-21;
