ISO-10303-21;
HEADER;
FILE_DESCRIPTION((''),'2;1');
FILE_NAME('AXE_GALET','2021-10-05T22:13:12',('laure'),(''),
'CREO PARAMETRIC BY PTC INC, 2020281','CREO PARAMETRIC BY PTC INC, 2020281','');
FILE_SCHEMA(('CONFIG_CONTROL_DESIGN'));
ENDSEC;
DATA;
#1=CARTESIAN_POINT('',(0.E0,0.E0,0.E0));
#2=DIRECTION('',(0.E0,0.E0,-1.E0));
#3=DIRECTION('',(0.E0,1.E0,0.E0));
#4=AXIS2_PLACEMENT_3D('',#1,#2,#3);
#6=CARTESIAN_POINT('',(0.E0,0.E0,0.E0));
#7=DIRECTION('',(0.E0,0.E0,-1.E0));
#8=DIRECTION('',(0.E0,-1.E0,0.E0));
#9=AXIS2_PLACEMENT_3D('',#6,#7,#8);
#11=DIRECTION('',(0.E0,-7.071067811865E-1,7.071067811865E-1));
#12=VECTOR('',#11,1.414213562373E0);
#13=CARTESIAN_POINT('',(1.550248526886E-9,3.999999996735E0,-9.999999967348E-1));
#14=LINE('',#13,#12);
#15=CARTESIAN_POINT('',(0.E0,0.E0,-1.E0));
#16=DIRECTION('',(0.E0,0.E0,-1.E0));
#17=DIRECTION('',(0.E0,1.E0,0.E0));
#18=AXIS2_PLACEMENT_3D('',#15,#16,#17);
#20=DIRECTION('',(-2.583748530269E-10,5.441983157438E-10,-1.E0));
#21=VECTOR('',#20,6.000000003265E0);
#22=CARTESIAN_POINT('',(1.550248526886E-9,3.999999996735E0,-9.999999967348E-1));
#23=LINE('',#22,#21);
#24=DIRECTION('',(2.583748328265E-10,-5.441986118033E-10,-1.E0));
#25=VECTOR('',#24,6.000000003265E0);
#26=CARTESIAN_POINT('',(-1.550248997803E-9,-3.999999996735E0,
-9.999999967348E-1));
#27=LINE('',#26,#25);
#28=CARTESIAN_POINT('',(0.E0,0.E0,-1.E0));
#29=DIRECTION('',(0.E0,0.E0,-1.E0));
#30=DIRECTION('',(0.E0,-1.E0,0.E0));
#31=AXIS2_PLACEMENT_3D('',#28,#29,#30);
#33=DIRECTION('',(0.E0,7.071067811865E-1,7.071067811865E-1));
#34=VECTOR('',#33,1.414213562373E0);
#35=CARTESIAN_POINT('',(-1.550248997803E-9,-3.999999996735E0,
-9.999999967348E-1));
#36=LINE('',#35,#34);
#37=CARTESIAN_POINT('',(0.E0,0.E0,-7.E0));
#38=DIRECTION('',(0.E0,0.E0,1.E0));
#39=DIRECTION('',(0.E0,-1.E0,0.E0));
#40=AXIS2_PLACEMENT_3D('',#37,#38,#39);
#42=CARTESIAN_POINT('',(0.E0,0.E0,-7.E0));
#43=DIRECTION('',(0.E0,0.E0,-1.E0));
#44=DIRECTION('',(0.E0,-1.E0,0.E0));
#45=AXIS2_PLACEMENT_3D('',#42,#43,#44);
#47=CARTESIAN_POINT('',(0.E0,0.E0,-7.E0));
#48=DIRECTION('',(0.E0,0.E0,-1.E0));
#49=DIRECTION('',(0.E0,-1.E0,0.E0));
#50=AXIS2_PLACEMENT_3D('',#47,#48,#49);
#52=DIRECTION('',(0.E0,0.E0,-1.E0));
#53=VECTOR('',#52,1.E1);
#54=CARTESIAN_POINT('',(0.E0,-5.E0,-7.E0));
#55=LINE('',#54,#53);
#56=CARTESIAN_POINT('',(0.E0,0.E0,-7.E0));
#57=DIRECTION('',(0.E0,0.E0,1.E0));
#58=DIRECTION('',(0.E0,-1.E0,0.E0));
#59=AXIS2_PLACEMENT_3D('',#56,#57,#58);
#61=DIRECTION('',(0.E0,0.E0,-1.E0));
#62=VECTOR('',#61,1.E1);
#63=CARTESIAN_POINT('',(0.E0,5.E0,-7.E0));
#64=LINE('',#63,#62);
#65=CARTESIAN_POINT('',(0.E0,0.E0,-1.7E1));
#66=DIRECTION('',(0.E0,0.E0,1.E0));
#67=DIRECTION('',(0.E0,-1.E0,0.E0));
#68=AXIS2_PLACEMENT_3D('',#65,#66,#67);
#70=CARTESIAN_POINT('',(0.E0,0.E0,-1.7E1));
#71=DIRECTION('',(0.E0,0.E0,-1.E0));
#72=DIRECTION('',(0.E0,-1.E0,0.E0));
#73=AXIS2_PLACEMENT_3D('',#70,#71,#72);
#75=CARTESIAN_POINT('',(0.E0,0.E0,-5.7E1));
#76=DIRECTION('',(0.E0,0.E0,-1.E0));
#77=DIRECTION('',(-6.614378277661E-1,7.5E-1,0.E0));
#78=AXIS2_PLACEMENT_3D('',#75,#76,#77);
#80=CARTESIAN_POINT('',(0.E0,0.E0,-1.7E1));
#81=DIRECTION('',(0.E0,0.E0,-1.E0));
#82=DIRECTION('',(0.E0,-1.E0,0.E0));
#83=AXIS2_PLACEMENT_3D('',#80,#81,#82);
#85=CARTESIAN_POINT('',(0.E0,0.E0,-6.4E1));
#86=DIRECTION('',(0.E0,0.E0,-1.E0));
#87=DIRECTION('',(0.E0,-1.E0,0.E0));
#88=AXIS2_PLACEMENT_3D('',#85,#86,#87);
#90=DIRECTION('',(0.E0,0.E0,-1.E0));
#91=VECTOR('',#90,7.E0);
#92=CARTESIAN_POINT('',(-2.645751311065E0,3.E0,-5.7E1));
#93=LINE('',#92,#91);
#94=DIRECTION('',(1.E0,0.E0,0.E0));
#95=VECTOR('',#94,5.291502622129E0);
#96=CARTESIAN_POINT('',(-2.645751311065E0,3.E0,-5.7E1));
#97=LINE('',#96,#95);
#98=CARTESIAN_POINT('',(-6.778432256278E-9,2.999999990661E0,-6.500000000316E1));
#99=CARTESIAN_POINT('',(-2.033866442287E-1,2.999999990661E0,-6.500000001699E1));
#100=CARTESIAN_POINT('',(-6.172205242382E-1,3.000000004336E0,
-6.495767301713E1));
#101=CARTESIAN_POINT('',(-1.249010675372E0,2.999999998833E0,-6.476890371731E1));
#102=CARTESIAN_POINT('',(-1.922268462096E0,3.000000000334E0,-6.445301851610E1));
#103=CARTESIAN_POINT('',(-2.399054990255E0,3.E0,-6.416317427855E1));
#104=CARTESIAN_POINT('',(-2.645751311065E0,3.E0,-6.4E1));
#106=DIRECTION('',(0.E0,-7.071067811865E-1,7.071067811865E-1));
#107=VECTOR('',#106,1.414213562373E0);
#108=CARTESIAN_POINT('',(1.364282856371E-8,-2.999999995785E0,
-6.500000000421E1));
#109=LINE('',#108,#107);
#110=CARTESIAN_POINT('',(2.645751311065E0,3.E0,-6.4E1));
#111=CARTESIAN_POINT('',(2.399049418957E0,3.E0,-6.416317796362E1));
#112=CARTESIAN_POINT('',(1.922233223107E0,3.000000000334E0,-6.445303008847E1));
#113=CARTESIAN_POINT('',(1.249109367450E0,2.999999998833E0,-6.476887553662E1));
#114=CARTESIAN_POINT('',(6.169480154537E-1,3.000000004336E0,-6.495774056297E1));
#115=CARTESIAN_POINT('',(2.032697042736E-1,2.999999990661E0,-6.500000001812E1));
#116=CARTESIAN_POINT('',(-6.778432256278E-9,2.999999990661E0,
-6.500000000316E1));
#118=CARTESIAN_POINT('',(0.E0,0.E0,-6.5E1));
#119=DIRECTION('',(0.E0,0.E0,-1.E0));
#120=DIRECTION('',(0.E0,-1.E0,0.E0));
#121=AXIS2_PLACEMENT_3D('',#118,#119,#120);
#123=CARTESIAN_POINT('',(0.E0,0.E0,-6.5E1));
#124=DIRECTION('',(0.E0,0.E0,-1.E0));
#125=DIRECTION('',(-3.406401553279E-9,1.E0,0.E0));
#126=AXIS2_PLACEMENT_3D('',#123,#124,#125);
#128=CARTESIAN_POINT('',(0.E0,0.E0,-5.7E1));
#129=DIRECTION('',(0.E0,0.E0,-1.E0));
#130=DIRECTION('',(0.E0,1.E0,0.E0));
#131=AXIS2_PLACEMENT_3D('',#128,#129,#130);
#133=DIRECTION('',(0.E0,0.E0,-1.E0));
#134=VECTOR('',#133,7.E0);
#135=CARTESIAN_POINT('',(2.645751311065E0,3.E0,-5.7E1));
#136=LINE('',#135,#134);
#137=CARTESIAN_POINT('',(0.E0,0.E0,-6.4E1));
#138=DIRECTION('',(0.E0,0.E0,-1.E0));
#139=DIRECTION('',(6.614378277661E-1,7.5E-1,0.E0));
#140=AXIS2_PLACEMENT_3D('',#137,#138,#139);
#142=DIRECTION('',(2.902729554765E-10,8.967291211377E-11,-1.E0));
#143=VECTOR('',#142,4.700000000421E1);
#144=CARTESIAN_POINT('',(0.E0,-4.E0,-1.7E1));
#145=LINE('',#144,#143);
#146=CARTESIAN_POINT('',(0.E0,0.E0,-1.7E1));
#147=DIRECTION('',(0.E0,0.E0,1.E0));
#148=DIRECTION('',(0.E0,-1.E0,0.E0));
#149=AXIS2_PLACEMENT_3D('',#146,#147,#148);
#151=DIRECTION('',(0.E0,0.E0,-1.E0));
#152=VECTOR('',#151,4.E1);
#153=CARTESIAN_POINT('',(0.E0,4.E0,-1.7E1));
#154=LINE('',#153,#152);
#155=CARTESIAN_POINT('',(0.E0,-5.E0,-7.E0));
#156=CARTESIAN_POINT('',(0.E0,-5.E0,-1.7E1));
#157=VERTEX_POINT('',#155);
#158=VERTEX_POINT('',#156);
#159=CARTESIAN_POINT('',(0.E0,5.E0,-7.E0));
#160=CARTESIAN_POINT('',(0.E0,5.E0,-1.7E1));
#161=VERTEX_POINT('',#159);
#162=VERTEX_POINT('',#160);
#163=CARTESIAN_POINT('',(0.E0,-4.E0,-7.E0));
#164=CARTESIAN_POINT('',(0.E0,4.E0,-7.E0));
#165=VERTEX_POINT('',#163);
#166=VERTEX_POINT('',#164);
#167=CARTESIAN_POINT('',(0.E0,-4.E0,-1.7E1));
#168=CARTESIAN_POINT('',(0.E0,4.E0,-1.7E1));
#169=VERTEX_POINT('',#167);
#170=VERTEX_POINT('',#168);
#171=CARTESIAN_POINT('',(0.E0,4.E0,-1.E0));
#172=CARTESIAN_POINT('',(0.E0,-4.E0,-1.E0));
#173=VERTEX_POINT('',#171);
#174=VERTEX_POINT('',#172);
#175=CARTESIAN_POINT('',(0.E0,3.E0,0.E0));
#176=CARTESIAN_POINT('',(0.E0,-3.E0,0.E0));
#177=VERTEX_POINT('',#175);
#178=VERTEX_POINT('',#176);
#179=CARTESIAN_POINT('',(1.364282890862E-8,-3.999999995785E0,
-6.400000000421E1));
#180=VERTEX_POINT('',#179);
#181=CARTESIAN_POINT('',(1.364282856371E-8,-2.999999995785E0,
-6.500000000421E1));
#182=VERTEX_POINT('',#181);
#183=CARTESIAN_POINT('',(-2.645751311065E0,3.E0,-5.7E1));
#184=CARTESIAN_POINT('',(0.E0,4.E0,-5.7E1));
#185=VERTEX_POINT('',#183);
#186=VERTEX_POINT('',#184);
#187=CARTESIAN_POINT('',(-2.645751311065E0,3.E0,-6.4E1));
#188=VERTEX_POINT('',#187);
#189=CARTESIAN_POINT('',(2.645751311065E0,3.E0,-5.7E1));
#190=VERTEX_POINT('',#189);
#191=CARTESIAN_POINT('',(2.645751311065E0,3.E0,-6.4E1));
#192=VERTEX_POINT('',#191);
#193=VERTEX_POINT('',#116);
#194=CARTESIAN_POINT('',(0.E0,0.E0,0.E0));
#195=DIRECTION('',(0.E0,0.E0,-1.E0));
#196=DIRECTION('',(0.E0,-1.E0,0.E0));
#197=AXIS2_PLACEMENT_3D('',#194,#195,#196);
#198=PLANE('',#197);
#200=ORIENTED_EDGE('',*,*,#199,.T.);
#202=ORIENTED_EDGE('',*,*,#201,.T.);
#203=EDGE_LOOP('',(#200,#202));
#204=FACE_OUTER_BOUND('',#203,.F.);
#205=ADVANCED_FACE('',(#204),#198,.F.);
#206=CARTESIAN_POINT('',(0.E0,0.E0,-4.999999977464E-1));
#207=DIRECTION('',(0.E0,0.E0,-1.E0));
#208=DIRECTION('',(0.E0,-1.E0,0.E0));
#209=AXIS2_PLACEMENT_3D('',#206,#207,#208);
#210=CONICAL_SURFACE('',#209,3.499999997746E0,4.5E1);
#212=ORIENTED_EDGE('',*,*,#211,.T.);
#214=ORIENTED_EDGE('',*,*,#213,.T.);
#215=ORIENTED_EDGE('',*,*,#199,.F.);
#217=ORIENTED_EDGE('',*,*,#216,.F.);
#218=EDGE_LOOP('',(#212,#214,#215,#217));
#219=FACE_OUTER_BOUND('',#218,.F.);
#220=ADVANCED_FACE('',(#219),#210,.T.);
#221=CARTESIAN_POINT('',(0.E0,0.E0,3.25E0));
#222=DIRECTION('',(0.E0,0.E0,-1.E0));
#223=DIRECTION('',(0.E0,-1.E0,0.E0));
#224=AXIS2_PLACEMENT_3D('',#221,#222,#223);
#225=CYLINDRICAL_SURFACE('',#224,4.E0);
#226=ORIENTED_EDGE('',*,*,#211,.F.);
#228=ORIENTED_EDGE('',*,*,#227,.T.);
#230=ORIENTED_EDGE('',*,*,#229,.F.);
#232=ORIENTED_EDGE('',*,*,#231,.F.);
#233=EDGE_LOOP('',(#226,#228,#230,#232));
#234=FACE_OUTER_BOUND('',#233,.F.);
#235=ADVANCED_FACE('',(#234),#225,.T.);
#236=CARTESIAN_POINT('',(0.E0,0.E0,3.25E0));
#237=DIRECTION('',(0.E0,0.E0,-1.E0));
#238=DIRECTION('',(0.E0,-1.E0,0.E0));
#239=AXIS2_PLACEMENT_3D('',#236,#237,#238);
#240=CYLINDRICAL_SURFACE('',#239,4.E0);
#242=ORIENTED_EDGE('',*,*,#241,.F.);
#243=ORIENTED_EDGE('',*,*,#231,.T.);
#245=ORIENTED_EDGE('',*,*,#244,.T.);
#246=ORIENTED_EDGE('',*,*,#227,.F.);
#247=EDGE_LOOP('',(#242,#243,#245,#246));
#248=FACE_OUTER_BOUND('',#247,.F.);
#249=ADVANCED_FACE('',(#248),#240,.T.);
#250=CARTESIAN_POINT('',(0.E0,0.E0,-4.999999977464E-1));
#251=DIRECTION('',(0.E0,0.E0,-1.E0));
#252=DIRECTION('',(0.E0,-1.E0,0.E0));
#253=AXIS2_PLACEMENT_3D('',#250,#251,#252);
#254=CONICAL_SURFACE('',#253,3.499999997746E0,4.5E1);
#255=ORIENTED_EDGE('',*,*,#241,.T.);
#256=ORIENTED_EDGE('',*,*,#216,.T.);
#257=ORIENTED_EDGE('',*,*,#201,.F.);
#258=ORIENTED_EDGE('',*,*,#213,.F.);
#259=EDGE_LOOP('',(#255,#256,#257,#258));
#260=FACE_OUTER_BOUND('',#259,.F.);
#261=ADVANCED_FACE('',(#260),#254,.T.);
#262=CARTESIAN_POINT('',(0.E0,0.E0,-7.E0));
#263=DIRECTION('',(0.E0,0.E0,-1.E0));
#264=DIRECTION('',(0.E0,-1.E0,0.E0));
#265=AXIS2_PLACEMENT_3D('',#262,#263,#264);
#266=PLANE('',#265);
#268=ORIENTED_EDGE('',*,*,#267,.T.);
#270=ORIENTED_EDGE('',*,*,#269,.F.);
#271=EDGE_LOOP('',(#268,#270));
#272=FACE_OUTER_BOUND('',#271,.F.);
#273=ORIENTED_EDGE('',*,*,#229,.T.);
#274=ORIENTED_EDGE('',*,*,#244,.F.);
#275=EDGE_LOOP('',(#273,#274));
#276=FACE_BOUND('',#275,.F.);
#277=ADVANCED_FACE('',(#272,#276),#266,.F.);
#278=CARTESIAN_POINT('',(0.E0,0.E0,3.25E0));
#279=DIRECTION('',(0.E0,0.E0,-1.E0));
#280=DIRECTION('',(0.E0,-1.E0,0.E0));
#281=AXIS2_PLACEMENT_3D('',#278,#279,#280);
#282=CYLINDRICAL_SURFACE('',#281,5.E0);
#284=ORIENTED_EDGE('',*,*,#283,.T.);
#286=ORIENTED_EDGE('',*,*,#285,.T.);
#288=ORIENTED_EDGE('',*,*,#287,.F.);
#289=ORIENTED_EDGE('',*,*,#267,.F.);
#290=EDGE_LOOP('',(#284,#286,#288,#289));
#291=FACE_OUTER_BOUND('',#290,.F.);
#292=ADVANCED_FACE('',(#291),#282,.T.);
#293=CARTESIAN_POINT('',(0.E0,0.E0,3.25E0));
#294=DIRECTION('',(0.E0,0.E0,-1.E0));
#295=DIRECTION('',(0.E0,-1.E0,0.E0));
#296=AXIS2_PLACEMENT_3D('',#293,#294,#295);
#297=CYLINDRICAL_SURFACE('',#296,5.E0);
#298=ORIENTED_EDGE('',*,*,#283,.F.);
#299=ORIENTED_EDGE('',*,*,#269,.T.);
#300=ORIENTED_EDGE('',*,*,#287,.T.);
#302=ORIENTED_EDGE('',*,*,#301,.F.);
#303=EDGE_LOOP('',(#298,#299,#300,#302));
#304=FACE_OUTER_BOUND('',#303,.F.);
#305=ADVANCED_FACE('',(#304),#297,.T.);
#306=CARTESIAN_POINT('',(0.E0,0.E0,-1.7E1));
#307=DIRECTION('',(0.E0,0.E0,-1.E0));
#308=DIRECTION('',(0.E0,-1.E0,0.E0));
#309=AXIS2_PLACEMENT_3D('',#306,#307,#308);
#310=PLANE('',#309);
#311=ORIENTED_EDGE('',*,*,#301,.T.);
#312=ORIENTED_EDGE('',*,*,#285,.F.);
#313=EDGE_LOOP('',(#311,#312));
#314=FACE_OUTER_BOUND('',#313,.F.);
#316=ORIENTED_EDGE('',*,*,#315,.T.);
#318=ORIENTED_EDGE('',*,*,#317,.F.);
#319=EDGE_LOOP('',(#316,#318));
#320=FACE_BOUND('',#319,.F.);
#321=ADVANCED_FACE('',(#314,#320),#310,.T.);
#322=CARTESIAN_POINT('',(0.E0,0.E0,3.25E0));
#323=DIRECTION('',(0.E0,0.E0,-1.E0));
#324=DIRECTION('',(0.E0,-1.E0,0.E0));
#325=AXIS2_PLACEMENT_3D('',#322,#323,#324);
#326=CYLINDRICAL_SURFACE('',#325,4.E0);
#328=ORIENTED_EDGE('',*,*,#327,.T.);
#330=ORIENTED_EDGE('',*,*,#329,.F.);
#331=ORIENTED_EDGE('',*,*,#315,.F.);
#333=ORIENTED_EDGE('',*,*,#332,.T.);
#335=ORIENTED_EDGE('',*,*,#334,.T.);
#337=ORIENTED_EDGE('',*,*,#336,.F.);
#338=EDGE_LOOP('',(#328,#330,#331,#333,#335,#337));
#339=FACE_OUTER_BOUND('',#338,.F.);
#340=ADVANCED_FACE('',(#339),#326,.T.);
#341=CARTESIAN_POINT('',(-4.E0,4.E0,-5.7E1));
#342=DIRECTION('',(0.E0,0.E0,1.E0));
#343=DIRECTION('',(0.E0,-1.E0,0.E0));
#344=AXIS2_PLACEMENT_3D('',#341,#342,#343);
#345=PLANE('',#344);
#346=ORIENTED_EDGE('',*,*,#327,.F.);
#348=ORIENTED_EDGE('',*,*,#347,.T.);
#350=ORIENTED_EDGE('',*,*,#349,.F.);
#351=EDGE_LOOP('',(#346,#348,#350));
#352=FACE_OUTER_BOUND('',#351,.F.);
#353=ADVANCED_FACE('',(#352),#345,.F.);
#354=CARTESIAN_POINT('',(-4.E0,3.E0,-5.7E1));
#355=DIRECTION('',(0.E0,-1.E0,0.E0));
#356=DIRECTION('',(0.E0,0.E0,-1.E0));
#357=AXIS2_PLACEMENT_3D('',#354,#355,#356);
#358=PLANE('',#357);
#359=ORIENTED_EDGE('',*,*,#336,.T.);
#361=ORIENTED_EDGE('',*,*,#360,.F.);
#363=ORIENTED_EDGE('',*,*,#362,.F.);
#365=ORIENTED_EDGE('',*,*,#364,.F.);
#366=ORIENTED_EDGE('',*,*,#347,.F.);
#367=EDGE_LOOP('',(#359,#361,#363,#365,#366));
#368=FACE_OUTER_BOUND('',#367,.F.);
#369=ADVANCED_FACE('',(#368),#358,.F.);
#370=CARTESIAN_POINT('',(0.E0,0.E0,-6.450000000346E1));
#371=DIRECTION('',(0.E0,0.E0,1.E0));
#372=DIRECTION('',(0.E0,-1.E0,0.E0));
#373=AXIS2_PLACEMENT_3D('',#370,#371,#372);
#374=CONICAL_SURFACE('',#373,3.499999996543E0,4.5E1);
#375=ORIENTED_EDGE('',*,*,#360,.T.);
#376=ORIENTED_EDGE('',*,*,#334,.F.);
#378=ORIENTED_EDGE('',*,*,#377,.F.);
#380=ORIENTED_EDGE('',*,*,#379,.T.);
#381=EDGE_LOOP('',(#375,#376,#378,#380));
#382=FACE_OUTER_BOUND('',#381,.F.);
#383=ADVANCED_FACE('',(#382),#374,.T.);
#384=CARTESIAN_POINT('',(0.E0,0.E0,-6.450000000330E1));
#385=DIRECTION('',(0.E0,0.E0,1.E0));
#386=DIRECTION('',(0.E0,-1.E0,0.E0));
#387=AXIS2_PLACEMENT_3D('',#384,#385,#386);
#388=CONICAL_SURFACE('',#387,3.499999996702E0,4.5E1);
#389=ORIENTED_EDGE('',*,*,#362,.T.);
#391=ORIENTED_EDGE('',*,*,#390,.T.);
#392=ORIENTED_EDGE('',*,*,#377,.T.);
#394=ORIENTED_EDGE('',*,*,#393,.F.);
#395=EDGE_LOOP('',(#389,#391,#392,#394));
#396=FACE_OUTER_BOUND('',#395,.F.);
#397=ADVANCED_FACE('',(#396),#388,.T.);
#398=CARTESIAN_POINT('',(0.E0,0.E0,-6.5E1));
#399=DIRECTION('',(0.E0,0.E0,-1.E0));
#400=DIRECTION('',(0.E0,-1.E0,0.E0));
#401=AXIS2_PLACEMENT_3D('',#398,#399,#400);
#402=PLANE('',#401);
#403=ORIENTED_EDGE('',*,*,#379,.F.);
#404=ORIENTED_EDGE('',*,*,#390,.F.);
#405=EDGE_LOOP('',(#403,#404));
#406=FACE_OUTER_BOUND('',#405,.F.);
#407=ADVANCED_FACE('',(#406),#402,.T.);
#408=CARTESIAN_POINT('',(0.E0,0.E0,3.25E0));
#409=DIRECTION('',(0.E0,0.E0,-1.E0));
#410=DIRECTION('',(0.E0,-1.E0,0.E0));
#411=AXIS2_PLACEMENT_3D('',#408,#409,#410);
#412=CYLINDRICAL_SURFACE('',#411,4.E0);
#413=ORIENTED_EDGE('',*,*,#349,.T.);
#414=ORIENTED_EDGE('',*,*,#364,.T.);
#415=ORIENTED_EDGE('',*,*,#393,.T.);
#416=ORIENTED_EDGE('',*,*,#332,.F.);
#417=ORIENTED_EDGE('',*,*,#317,.T.);
#418=ORIENTED_EDGE('',*,*,#329,.T.);
#419=EDGE_LOOP('',(#413,#414,#415,#416,#417,#418));
#420=FACE_OUTER_BOUND('',#419,.F.);
#421=ADVANCED_FACE('',(#420),#412,.T.);
#425=DIMENSIONAL_EXPONENTS(0.E0,0.E0,0.E0,0.E0,0.E0,0.E0,0.E0);
#427=PLANE_ANGLE_MEASURE_WITH_UNIT(PLANE_ANGLE_MEASURE(1.745329251994E-2),#426);
#428=(CONVERSION_BASED_UNIT('DEGREE',#427)NAMED_UNIT(*)PLANE_ANGLE_UNIT());
#430=UNCERTAINTY_MEASURE_WITH_UNIT(LENGTH_MEASURE(1.E-2),#424,'closure',
'Maximum model space distance between geometric entities at asserted connectivities');
#431=(GEOMETRIC_REPRESENTATION_CONTEXT(3)GLOBAL_UNCERTAINTY_ASSIGNED_CONTEXT((
#430))GLOBAL_UNIT_ASSIGNED_CONTEXT((#424,#428,#429))REPRESENTATION_CONTEXT
('ID1','3'));
#433=APPLICATION_CONTEXT(
'CONFIGURATION CONTROLLED 3D DESIGNS OF MECHANICAL PARTS AND ASSEMBLIES');
#434=APPLICATION_PROTOCOL_DEFINITION('international standard',
'config_control_design',1994,#433);
#435=DESIGN_CONTEXT('',#433,'design');
#436=MECHANICAL_CONTEXT('',#433,'mechanical');
#437=PRODUCT('AXE_GALET','AXE_GALET','NOT SPECIFIED',(#436));
#438=PRODUCT_DEFINITION_FORMATION_WITH_SPECIFIED_SOURCE('9','LAST_VERSION',#437,
.MADE.);
#442=PRODUCT_CATEGORY('part','');
#443=PRODUCT_RELATED_PRODUCT_CATEGORY('detail','',(#437));
#444=PRODUCT_CATEGORY_RELATIONSHIP('','',#442,#443);
#445=SECURITY_CLASSIFICATION_LEVEL('unclassified');
#446=SECURITY_CLASSIFICATION('','',#445);
#447=CC_DESIGN_SECURITY_CLASSIFICATION(#446,(#438));
#448=APPROVAL_STATUS('approved');
#449=APPROVAL(#448,'');
#450=CC_DESIGN_APPROVAL(#449,(#446,#438,#439));
#451=CALENDAR_DATE(121,5,10);
#452=COORDINATED_UNIVERSAL_TIME_OFFSET(2,0,.AHEAD.);
#453=LOCAL_TIME(22,13,1.2E1,#452);
#454=DATE_AND_TIME(#451,#453);
#455=APPROVAL_DATE_TIME(#454,#449);
#456=DATE_TIME_ROLE('creation_date');
#457=CC_DESIGN_DATE_AND_TIME_ASSIGNMENT(#454,#456,(#439));
#458=DATE_TIME_ROLE('classification_date');
#459=CC_DESIGN_DATE_AND_TIME_ASSIGNMENT(#454,#458,(#446));
#460=PERSON('UNSPECIFIED','UNSPECIFIED',$,$,$,$);
#461=ORGANIZATION('UNSPECIFIED','UNSPECIFIED','UNSPECIFIED');
#462=PERSON_AND_ORGANIZATION(#460,#461);
#463=APPROVAL_ROLE('approver');
#464=APPROVAL_PERSON_ORGANIZATION(#462,#449,#463);
#465=PERSON_AND_ORGANIZATION_ROLE('creator');
#466=CC_DESIGN_PERSON_AND_ORGANIZATION_ASSIGNMENT(#462,#465,(#438,#439));
#467=PERSON_AND_ORGANIZATION_ROLE('design_supplier');
#468=CC_DESIGN_PERSON_AND_ORGANIZATION_ASSIGNMENT(#462,#467,(#438));
#469=PERSON_AND_ORGANIZATION_ROLE('classification_officer');
#470=CC_DESIGN_PERSON_AND_ORGANIZATION_ASSIGNMENT(#462,#469,(#446));
#471=PERSON_AND_ORGANIZATION_ROLE('design_owner');
#472=CC_DESIGN_PERSON_AND_ORGANIZATION_ASSIGNMENT(#462,#471,(#437));
#5=CIRCLE('',#4,3.E0);
#10=CIRCLE('',#9,3.E0);
#19=CIRCLE('',#18,4.E0);
#32=CIRCLE('',#31,4.E0);
#41=CIRCLE('',#40,4.E0);
#46=CIRCLE('',#45,4.E0);
#51=CIRCLE('',#50,5.E0);
#60=CIRCLE('',#59,5.E0);
#69=CIRCLE('',#68,5.E0);
#74=CIRCLE('',#73,5.E0);
#79=CIRCLE('',#78,4.E0);
#84=CIRCLE('',#83,4.E0);
#89=CIRCLE('',#88,4.E0);
#105=B_SPLINE_CURVE_WITH_KNOTS('',3,(#98,#99,#100,#101,#102,#103,#104),
.UNSPECIFIED.,.F.,.F.,(4,1,1,1,4),(0.E0,2.5E-1,5.E-1,7.5E-1,1.E0),
.UNSPECIFIED.);
#117=B_SPLINE_CURVE_WITH_KNOTS('',3,(#110,#111,#112,#113,#114,#115,#116),
.UNSPECIFIED.,.F.,.F.,(4,1,1,1,4),(0.E0,2.5E-1,5.E-1,7.5E-1,1.E0),
.UNSPECIFIED.);
#122=CIRCLE('',#121,3.E0);
#127=CIRCLE('',#126,3.E0);
#132=CIRCLE('',#131,4.E0);
#141=CIRCLE('',#140,4.E0);
#150=CIRCLE('',#149,4.E0);
#199=EDGE_CURVE('',#177,#178,#5,.T.);
#201=EDGE_CURVE('',#178,#177,#10,.T.);
#211=EDGE_CURVE('',#173,#174,#19,.T.);
#213=EDGE_CURVE('',#174,#178,#36,.T.);
#216=EDGE_CURVE('',#173,#177,#14,.T.);
#227=EDGE_CURVE('',#173,#166,#23,.T.);
#229=EDGE_CURVE('',#165,#166,#41,.T.);
#231=EDGE_CURVE('',#174,#165,#27,.T.);
#241=EDGE_CURVE('',#174,#173,#32,.T.);
#244=EDGE_CURVE('',#165,#166,#46,.T.);
#267=EDGE_CURVE('',#157,#161,#51,.T.);
#269=EDGE_CURVE('',#157,#161,#60,.T.);
#283=EDGE_CURVE('',#157,#158,#55,.T.);
#285=EDGE_CURVE('',#158,#162,#74,.T.);
#287=EDGE_CURVE('',#161,#162,#64,.T.);
#301=EDGE_CURVE('',#158,#162,#69,.T.);
#315=EDGE_CURVE('',#169,#170,#84,.T.);
#317=EDGE_CURVE('',#169,#170,#150,.T.);
#327=EDGE_CURVE('',#185,#186,#79,.T.);
#329=EDGE_CURVE('',#170,#186,#154,.T.);
#332=EDGE_CURVE('',#169,#180,#145,.T.);
#334=EDGE_CURVE('',#180,#188,#89,.T.);
#336=EDGE_CURVE('',#185,#188,#93,.T.);
#347=EDGE_CURVE('',#185,#190,#97,.T.);
#349=EDGE_CURVE('',#186,#190,#132,.T.);
#360=EDGE_CURVE('',#193,#188,#105,.T.);
#362=EDGE_CURVE('',#192,#193,#117,.T.);
#364=EDGE_CURVE('',#190,#192,#136,.T.);
#377=EDGE_CURVE('',#182,#180,#109,.T.);
#379=EDGE_CURVE('',#182,#193,#122,.T.);
#390=EDGE_CURVE('',#193,#182,#127,.T.);
#393=EDGE_CURVE('',#192,#180,#141,.T.);
#422=CLOSED_SHELL('',(#205,#220,#235,#249,#261,#277,#292,#305,#321,#340,#353,
#369,#383,#397,#407,#421));
#423=MANIFOLD_SOLID_BREP('',#422);
#424=(LENGTH_UNIT()NAMED_UNIT(*)SI_UNIT(.MILLI.,.METRE.));
#426=(NAMED_UNIT(*)PLANE_ANGLE_UNIT()SI_UNIT($,.RADIAN.));
#429=(NAMED_UNIT(*)SI_UNIT($,.STERADIAN.)SOLID_ANGLE_UNIT());
#432=ADVANCED_BREP_SHAPE_REPRESENTATION('',(#423),#431);
#439=PRODUCT_DEFINITION('design','',#438,#435);
#440=PRODUCT_DEFINITION_SHAPE('','SHAPE FOR AXE_GALET.',#439);
#441=SHAPE_DEFINITION_REPRESENTATION(#440,#432);
ENDSEC;
END-ISO-10303-21;
