ISO-10303-21;
HEADER;
/* Generated by software containing ST-Developer
 * from STEP Tools, Inc. (www.steptools.com) 
 */

FILE_DESCRIPTION(
/* description */ (''),
/* implementation_level */ '2;1');

FILE_NAME(
/* name */ 
'C:\\Users\\33751\\Documents\\Inventor\\Content Center Files\\HERMES F
\X\D6RMA\\ANTENNE BOITIER.stp',
/* time_stamp */ '2021-10-14T15:16:32+02:00',
/* author */ ('33751'),
/* organization */ (''),
/* preprocessor_version */ 'ST-DEVELOPER v17',
/* originating_system */ 'Autodesk Inventor 2019',
/* authorisation */ '');

FILE_SCHEMA (('AUTOMOTIVE_DESIGN { 1 0 10303 214 3 1 1 }'));
ENDSEC;

DATA;
#10=MECHANICAL_DESIGN_GEOMETRIC_PRESENTATION_REPRESENTATION('',(#13),#187);
#11=SHAPE_REPRESENTATION_RELATIONSHIP('SRR','None',#194,#12);
#12=ADVANCED_BREP_SHAPE_REPRESENTATION('',(#14),#186);
#13=STYLED_ITEM('',(#203),#14);
#14=MANIFOLD_SOLID_BREP('Solid1',#92);
#15=SPHERICAL_SURFACE('',#124,5.);
#16=FACE_BOUND('',#29,.T.);
#17=CONICAL_SURFACE('',#118,6.,0.026660348374598);
#18=PLANE('',#117);
#19=PLANE('',#123);
#20=FACE_OUTER_BOUND('',#25,.T.);
#21=FACE_OUTER_BOUND('',#26,.T.);
#22=FACE_OUTER_BOUND('',#27,.T.);
#23=FACE_OUTER_BOUND('',#28,.T.);
#24=FACE_OUTER_BOUND('',#30,.T.);
#25=EDGE_LOOP('',(#64,#65,#66,#67,#68,#69));
#26=EDGE_LOOP('',(#70,#71));
#27=EDGE_LOOP('',(#72,#73,#74,#75,#76,#77));
#28=EDGE_LOOP('',(#78,#79));
#29=EDGE_LOOP('',(#80,#81));
#30=EDGE_LOOP('',(#82,#83,#84,#85));
#31=LINE('',#165,#33);
#32=LINE('',#176,#34);
#33=VECTOR('',#134,3.);
#34=VECTOR('',#147,6.);
#35=CIRCLE('',#113,3.);
#36=CIRCLE('',#114,3.);
#37=CIRCLE('',#115,3.);
#38=CIRCLE('',#116,3.);
#39=CIRCLE('',#119,7.);
#40=CIRCLE('',#120,7.);
#41=CIRCLE('',#121,5.);
#42=CIRCLE('',#122,5.);
#43=CIRCLE('',#125,5.);
#44=VERTEX_POINT('',#160);
#45=VERTEX_POINT('',#161);
#46=VERTEX_POINT('',#164);
#47=VERTEX_POINT('',#166);
#48=VERTEX_POINT('',#171);
#49=VERTEX_POINT('',#172);
#50=VERTEX_POINT('',#175);
#51=VERTEX_POINT('',#177);
#52=VERTEX_POINT('',#182);
#53=EDGE_CURVE('',#44,#45,#35,.T.);
#54=EDGE_CURVE('',#45,#44,#36,.T.);
#55=EDGE_CURVE('',#45,#46,#31,.T.);
#56=EDGE_CURVE('',#47,#46,#37,.T.);
#57=EDGE_CURVE('',#46,#47,#38,.T.);
#58=EDGE_CURVE('',#48,#49,#39,.T.);
#59=EDGE_CURVE('',#49,#48,#40,.T.);
#60=EDGE_CURVE('',#49,#50,#32,.T.);
#61=EDGE_CURVE('',#50,#51,#41,.T.);
#62=EDGE_CURVE('',#51,#50,#42,.T.);
#63=EDGE_CURVE('',#52,#50,#43,.T.);
#64=ORIENTED_EDGE('',*,*,#53,.F.);
#65=ORIENTED_EDGE('',*,*,#54,.F.);
#66=ORIENTED_EDGE('',*,*,#55,.T.);
#67=ORIENTED_EDGE('',*,*,#56,.F.);
#68=ORIENTED_EDGE('',*,*,#57,.F.);
#69=ORIENTED_EDGE('',*,*,#55,.F.);
#70=ORIENTED_EDGE('',*,*,#53,.T.);
#71=ORIENTED_EDGE('',*,*,#54,.T.);
#72=ORIENTED_EDGE('',*,*,#58,.F.);
#73=ORIENTED_EDGE('',*,*,#59,.F.);
#74=ORIENTED_EDGE('',*,*,#60,.T.);
#75=ORIENTED_EDGE('',*,*,#61,.T.);
#76=ORIENTED_EDGE('',*,*,#62,.T.);
#77=ORIENTED_EDGE('',*,*,#60,.F.);
#78=ORIENTED_EDGE('',*,*,#58,.T.);
#79=ORIENTED_EDGE('',*,*,#59,.T.);
#80=ORIENTED_EDGE('',*,*,#56,.T.);
#81=ORIENTED_EDGE('',*,*,#57,.T.);
#82=ORIENTED_EDGE('',*,*,#62,.F.);
#83=ORIENTED_EDGE('',*,*,#61,.F.);
#84=ORIENTED_EDGE('',*,*,#63,.F.);
#85=ORIENTED_EDGE('',*,*,#63,.T.);
#86=CYLINDRICAL_SURFACE('',#112,3.);
#87=ADVANCED_FACE('',(#20),#86,.F.);
#88=ADVANCED_FACE('',(#21),#18,.F.);
#89=ADVANCED_FACE('',(#22),#17,.T.);
#90=ADVANCED_FACE('',(#23,#16),#19,.T.);
#91=ADVANCED_FACE('',(#24),#15,.T.);
#92=CLOSED_SHELL('',(#87,#88,#89,#90,#91));
#93=DERIVED_UNIT_ELEMENT(#95,1.);
#94=DERIVED_UNIT_ELEMENT(#189,3.);
#95=(
MASS_UNIT()
NAMED_UNIT(*)
SI_UNIT($,.GRAM.)
);
#96=DERIVED_UNIT((#93,#94));
#97=MEASURE_REPRESENTATION_ITEM('density measure',
POSITIVE_RATIO_MEASURE(1.),#96);
#98=PROPERTY_DEFINITION_REPRESENTATION(#103,#100);
#99=PROPERTY_DEFINITION_REPRESENTATION(#104,#101);
#100=REPRESENTATION('material name',(#102),#186);
#101=REPRESENTATION('density',(#97),#186);
#102=DESCRIPTIVE_REPRESENTATION_ITEM('Generic','Generic');
#103=PROPERTY_DEFINITION('material property','material name',#196);
#104=PROPERTY_DEFINITION('material property','density of part',#196);
#105=DATE_TIME_ROLE('creation_date');
#106=APPLIED_DATE_AND_TIME_ASSIGNMENT(#107,#105,(#196));
#107=DATE_AND_TIME(#108,#109);
#108=CALENDAR_DATE(2021,13,10);
#109=LOCAL_TIME(23,20,49.,#110);
#110=COORDINATED_UNIVERSAL_TIME_OFFSET(0,0,.BEHIND.);
#111=AXIS2_PLACEMENT_3D('placement',#158,#126,#127);
#112=AXIS2_PLACEMENT_3D('',#159,#128,#129);
#113=AXIS2_PLACEMENT_3D('',#162,#130,#131);
#114=AXIS2_PLACEMENT_3D('',#163,#132,#133);
#115=AXIS2_PLACEMENT_3D('',#167,#135,#136);
#116=AXIS2_PLACEMENT_3D('',#168,#137,#138);
#117=AXIS2_PLACEMENT_3D('',#169,#139,#140);
#118=AXIS2_PLACEMENT_3D('',#170,#141,#142);
#119=AXIS2_PLACEMENT_3D('',#173,#143,#144);
#120=AXIS2_PLACEMENT_3D('',#174,#145,#146);
#121=AXIS2_PLACEMENT_3D('',#178,#148,#149);
#122=AXIS2_PLACEMENT_3D('',#179,#150,#151);
#123=AXIS2_PLACEMENT_3D('',#180,#152,#153);
#124=AXIS2_PLACEMENT_3D('',#181,#154,#155);
#125=AXIS2_PLACEMENT_3D('',#183,#156,#157);
#126=DIRECTION('axis',(0.,0.,1.));
#127=DIRECTION('refdir',(1.,0.,0.));
#128=DIRECTION('center_axis',(0.,-1.,0.));
#129=DIRECTION('ref_axis',(0.,0.,-1.));
#130=DIRECTION('center_axis',(0.,-1.,0.));
#131=DIRECTION('ref_axis',(1.,0.,0.));
#132=DIRECTION('center_axis',(0.,-1.,0.));
#133=DIRECTION('ref_axis',(1.,0.,0.));
#134=DIRECTION('',(0.,-1.,0.));
#135=DIRECTION('center_axis',(0.,1.,0.));
#136=DIRECTION('ref_axis',(0.,0.,-1.));
#137=DIRECTION('center_axis',(0.,1.,0.));
#138=DIRECTION('ref_axis',(0.,0.,-1.));
#139=DIRECTION('center_axis',(0.,1.,0.));
#140=DIRECTION('ref_axis',(0.,0.,1.));
#141=DIRECTION('center_axis',(0.,-1.,0.));
#142=DIRECTION('ref_axis',(0.,0.,-1.));
#143=DIRECTION('center_axis',(0.,-1.,0.));
#144=DIRECTION('ref_axis',(1.,0.,0.));
#145=DIRECTION('center_axis',(0.,-1.,0.));
#146=DIRECTION('ref_axis',(1.,0.,0.));
#147=DIRECTION('',(3.26456427004296E-18,0.999644633961771,-0.0266571902389806));
#148=DIRECTION('center_axis',(0.,-1.,0.));
#149=DIRECTION('ref_axis',(1.,0.,0.));
#150=DIRECTION('center_axis',(0.,-1.,0.));
#151=DIRECTION('ref_axis',(1.,0.,0.));
#152=DIRECTION('center_axis',(0.,-1.,0.));
#153=DIRECTION('ref_axis',(0.,0.,-1.));
#154=DIRECTION('center_axis',(0.,1.,-6.12323399573677E-17));
#155=DIRECTION('ref_axis',(0.,0.,-1.));
#156=DIRECTION('center_axis',(1.,0.,-1.22464679914735E-16));
#157=DIRECTION('ref_axis',(1.22464679914735E-16,0.,1.));
#158=CARTESIAN_POINT('',(0.,0.,0.));
#159=CARTESIAN_POINT('Origin',(0.,5.,0.));
#160=CARTESIAN_POINT('',(0.,10.,-3.));
#161=CARTESIAN_POINT('',(-3.67394039744206E-16,10.,3.));
#162=CARTESIAN_POINT('Origin',(0.,10.,0.));
#163=CARTESIAN_POINT('Origin',(0.,10.,0.));
#164=CARTESIAN_POINT('',(-3.67394039744206E-16,0.,3.));
#165=CARTESIAN_POINT('',(-3.67394039744206E-16,5.,3.));
#166=CARTESIAN_POINT('',(0.,1.11022302462516E-15,-3.));
#167=CARTESIAN_POINT('Origin',(0.,0.,0.));
#168=CARTESIAN_POINT('Origin',(0.,0.,0.));
#169=CARTESIAN_POINT('Origin',(0.,10.,-3.));
#170=CARTESIAN_POINT('Origin',(0.,37.5,0.));
#171=CARTESIAN_POINT('',(0.,8.57252759403147E-16,-7.));
#172=CARTESIAN_POINT('',(-8.57252759403147E-16,-8.88178419700125E-15,7.));
#173=CARTESIAN_POINT('Origin',(0.,0.,0.));
#174=CARTESIAN_POINT('Origin',(0.,0.,0.));
#175=CARTESIAN_POINT('',(-6.12323399573677E-16,75.,5.));
#176=CARTESIAN_POINT('',(-7.34788079488412E-16,37.5,6.));
#177=CARTESIAN_POINT('',(0.,75.,-5.));
#178=CARTESIAN_POINT('Origin',(0.,75.,0.));
#179=CARTESIAN_POINT('Origin',(0.,75.,0.));
#180=CARTESIAN_POINT('Origin',(0.,1.23259516440783E-31,0.));
#181=CARTESIAN_POINT('Origin',(0.,75.,0.));
#182=CARTESIAN_POINT('',(3.74939945665464E-32,80.,3.06161699786838E-16));
#183=CARTESIAN_POINT('Origin',(0.,75.,0.));
#184=UNCERTAINTY_MEASURE_WITH_UNIT(LENGTH_MEASURE(0.01),#188,
'DISTANCE_ACCURACY_VALUE',
'Maximum model space distance between geometric entities at asserted c
onnectivities');
#185=UNCERTAINTY_MEASURE_WITH_UNIT(LENGTH_MEASURE(0.01),#188,
'DISTANCE_ACCURACY_VALUE',
'Maximum model space distance between geometric entities at asserted c
onnectivities');
#186=(
GEOMETRIC_REPRESENTATION_CONTEXT(3)
GLOBAL_UNCERTAINTY_ASSIGNED_CONTEXT((#184))
GLOBAL_UNIT_ASSIGNED_CONTEXT((#188,#191,#190))
REPRESENTATION_CONTEXT('','3D')
);
#187=(
GEOMETRIC_REPRESENTATION_CONTEXT(3)
GLOBAL_UNCERTAINTY_ASSIGNED_CONTEXT((#185))
GLOBAL_UNIT_ASSIGNED_CONTEXT((#188,#191,#190))
REPRESENTATION_CONTEXT('','3D')
);
#188=(
LENGTH_UNIT()
NAMED_UNIT(*)
SI_UNIT(.MILLI.,.METRE.)
);
#189=(
LENGTH_UNIT()
NAMED_UNIT(*)
SI_UNIT(.CENTI.,.METRE.)
);
#190=(
NAMED_UNIT(*)
SI_UNIT($,.STERADIAN.)
SOLID_ANGLE_UNIT()
);
#191=(
NAMED_UNIT(*)
PLANE_ANGLE_UNIT()
SI_UNIT($,.RADIAN.)
);
#192=SHAPE_DEFINITION_REPRESENTATION(#193,#194);
#193=PRODUCT_DEFINITION_SHAPE('',$,#196);
#194=SHAPE_REPRESENTATION('',(#111),#186);
#195=PRODUCT_DEFINITION_CONTEXT('part definition',#200,'design');
#196=PRODUCT_DEFINITION('ANTENNE BOITIER','ANTENNE BOITIER',#197,#195);
#197=PRODUCT_DEFINITION_FORMATION('',$,#202);
#198=PRODUCT_RELATED_PRODUCT_CATEGORY('ANTENNE BOITIER',
'ANTENNE BOITIER',(#202));
#199=APPLICATION_PROTOCOL_DEFINITION('international standard',
'automotive_design',2009,#200);
#200=APPLICATION_CONTEXT(
'Core Data for Automotive Mechanical Design Process');
#201=PRODUCT_CONTEXT('part definition',#200,'mechanical');
#202=PRODUCT('ANTENNE BOITIER','ANTENNE BOITIER',$,(#201));
#203=PRESENTATION_STYLE_ASSIGNMENT((#204));
#204=SURFACE_STYLE_USAGE(.BOTH.,#205);
#205=SURFACE_SIDE_STYLE('',(#206));
#206=SURFACE_STYLE_FILL_AREA(#207);
#207=FILL_AREA_STYLE('',(#208));
#208=FILL_AREA_STYLE_COLOUR('',#209);
#209=COLOUR_RGB('',0.701960784313725,0.552941176470588,0.00392156862745098);
ENDSEC;
END-ISO-10303-21;
