ISO-10303-21;
HEADER;
/* Generated by software containing ST-Developer
 * from STEP Tools, Inc. (www.steptools.com) 
 */

FILE_DESCRIPTION(
/* description */ (''),
/* implementation_level */ '2;1');

FILE_NAME(
/* name */ 'C:/Users/LOIC/Desktop/monopod pour cnc/V7 PIED v2.step',
/* time_stamp */ '2021-09-28T23:13:13+02:00',
/* author */ (''),
/* organization */ (''),
/* preprocessor_version */ 'ST-DEVELOPER v18.1',
/* originating_system */ 'Autodesk Translation Framework v10.10.0.1391',

/* authorisation */ '');

FILE_SCHEMA (('AUTOMOTIVE_DESIGN { 1 0 10303 214 3 1 1 }'));
ENDSEC;

DATA;
#10=MECHANICAL_DESIGN_GEOMETRIC_PRESENTATION_REPRESENTATION('',(#13),#254);
#11=SHAPE_REPRESENTATION_RELATIONSHIP('SRR','None',#261,#12);
#12=ADVANCED_BREP_SHAPE_REPRESENTATION('',(#14),#253);
#13=STYLED_ITEM('',(#270),#14);
#14=MANIFOLD_SOLID_BREP('Pied V7',#122);
#15=(
BOUNDED_SURFACE()
B_SPLINE_SURFACE(2,2,((#222,#223,#224,#225,#226,#227,#228,#229,#230),(#231,
#232,#233,#234,#235,#236,#237,#238,#239),(#240,#241,#242,#243,#244,#245,
#246,#247,#248)),.UNSPECIFIED.,.F.,.T.,.F.)
B_SPLINE_SURFACE_WITH_KNOTS((3,3),(3,2,2,2,3),(0.773869269139452,1.5707963267949),
(-3.14159265358979,-1.5707963267949,0.,1.5707963267949,3.14159265358979),
 .UNSPECIFIED.)
GEOMETRIC_REPRESENTATION_ITEM()
RATIONAL_B_SPLINE_SURFACE(((1.,0.707106781186548,1.,0.707106781186548,1.,
0.707106781186548,1.,0.707106781186548,1.),(0.921658236630144,0.651710789057611,
0.921658236630144,0.651710789057611,0.921658236630144,0.651710789057611,
0.921658236630144,0.651710789057611,0.921658236630144),(1.,0.707106781186548,
1.,0.707106781186548,1.,0.707106781186548,1.,0.707106781186548,1.)))
REPRESENTATION_ITEM('')
SURFACE()
);
#16=FACE_BOUND('',#35,.T.);
#17=FACE_BOUND('',#38,.T.);
#18=FACE_BOUND('',#41,.T.);
#19=PLANE('',#145);
#20=PLANE('',#150);
#21=PLANE('',#152);
#22=CONICAL_SURFACE('',#140,2.3,0.785398163397448);
#23=FACE_OUTER_BOUND('',#31,.T.);
#24=FACE_OUTER_BOUND('',#32,.T.);
#25=FACE_OUTER_BOUND('',#33,.T.);
#26=FACE_OUTER_BOUND('',#34,.T.);
#27=FACE_OUTER_BOUND('',#36,.T.);
#28=FACE_OUTER_BOUND('',#37,.T.);
#29=FACE_OUTER_BOUND('',#39,.T.);
#30=FACE_OUTER_BOUND('',#40,.T.);
#31=EDGE_LOOP('',(#83,#84,#85,#86,#87));
#32=EDGE_LOOP('',(#88,#89,#90,#91));
#33=EDGE_LOOP('',(#92,#93,#94,#95));
#34=EDGE_LOOP('',(#96));
#35=EDGE_LOOP('',(#97));
#36=EDGE_LOOP('',(#98,#99,#100,#101));
#37=EDGE_LOOP('',(#102));
#38=EDGE_LOOP('',(#103));
#39=EDGE_LOOP('',(#104,#105,#106,#107,#108));
#40=EDGE_LOOP('',(#109));
#41=EDGE_LOOP('',(#110));
#42=LINE('',#198,#46);
#43=LINE('',#206,#47);
#44=LINE('',#211,#48);
#45=LINE('',#219,#49);
#46=VECTOR('',#159,10.5);
#47=VECTOR('',#168,2.3);
#48=VECTOR('',#175,1.5);
#49=VECTOR('',#184,4.05);
#50=CIRCLE('',#137,10.5);
#51=CIRCLE('',#138,10.5);
#52=CIRCLE('',#139,10.5);
#53=CIRCLE('',#141,3.1);
#54=CIRCLE('',#142,1.5);
#55=CIRCLE('',#144,1.5);
#56=CIRCLE('',#146,3.2048399691022);
#57=CIRCLE('',#148,4.05);
#58=CIRCLE('',#149,4.05);
#59=CIRCLE('',#151,10.2);
#60=VERTEX_POINT('',#195);
#61=VERTEX_POINT('',#197);
#62=VERTEX_POINT('',#199);
#63=VERTEX_POINT('',#203);
#64=VERTEX_POINT('',#205);
#65=VERTEX_POINT('',#209);
#66=VERTEX_POINT('',#213);
#67=VERTEX_POINT('',#216);
#68=VERTEX_POINT('',#218);
#69=EDGE_CURVE('',#60,#60,#50,.T.);
#70=EDGE_CURVE('',#60,#61,#42,.T.);
#71=EDGE_CURVE('',#62,#61,#51,.T.);
#72=EDGE_CURVE('',#61,#62,#52,.T.);
#73=EDGE_CURVE('',#63,#63,#53,.T.);
#74=EDGE_CURVE('',#63,#64,#43,.T.);
#75=EDGE_CURVE('',#64,#64,#54,.T.);
#76=EDGE_CURVE('',#65,#65,#55,.T.);
#77=EDGE_CURVE('',#65,#64,#44,.T.);
#78=EDGE_CURVE('',#66,#66,#56,.T.);
#79=EDGE_CURVE('',#67,#67,#57,.T.);
#80=EDGE_CURVE('',#67,#68,#45,.T.);
#81=EDGE_CURVE('',#68,#68,#58,.T.);
#82=EDGE_CURVE('',#66,#62,#59,.T.);
#83=ORIENTED_EDGE('',*,*,#69,.F.);
#84=ORIENTED_EDGE('',*,*,#70,.T.);
#85=ORIENTED_EDGE('',*,*,#71,.F.);
#86=ORIENTED_EDGE('',*,*,#72,.F.);
#87=ORIENTED_EDGE('',*,*,#70,.F.);
#88=ORIENTED_EDGE('',*,*,#73,.T.);
#89=ORIENTED_EDGE('',*,*,#74,.T.);
#90=ORIENTED_EDGE('',*,*,#75,.T.);
#91=ORIENTED_EDGE('',*,*,#74,.F.);
#92=ORIENTED_EDGE('',*,*,#76,.F.);
#93=ORIENTED_EDGE('',*,*,#77,.T.);
#94=ORIENTED_EDGE('',*,*,#75,.F.);
#95=ORIENTED_EDGE('',*,*,#77,.F.);
#96=ORIENTED_EDGE('',*,*,#78,.F.);
#97=ORIENTED_EDGE('',*,*,#73,.F.);
#98=ORIENTED_EDGE('',*,*,#79,.F.);
#99=ORIENTED_EDGE('',*,*,#80,.T.);
#100=ORIENTED_EDGE('',*,*,#81,.T.);
#101=ORIENTED_EDGE('',*,*,#80,.F.);
#102=ORIENTED_EDGE('',*,*,#81,.F.);
#103=ORIENTED_EDGE('',*,*,#76,.T.);
#104=ORIENTED_EDGE('',*,*,#78,.T.);
#105=ORIENTED_EDGE('',*,*,#82,.T.);
#106=ORIENTED_EDGE('',*,*,#71,.T.);
#107=ORIENTED_EDGE('',*,*,#72,.T.);
#108=ORIENTED_EDGE('',*,*,#82,.F.);
#109=ORIENTED_EDGE('',*,*,#69,.T.);
#110=ORIENTED_EDGE('',*,*,#79,.T.);
#111=CYLINDRICAL_SURFACE('',#136,10.5);
#112=CYLINDRICAL_SURFACE('',#143,1.5);
#113=CYLINDRICAL_SURFACE('',#147,4.05);
#114=ADVANCED_FACE('',(#23),#111,.T.);
#115=ADVANCED_FACE('',(#24),#22,.F.);
#116=ADVANCED_FACE('',(#25),#112,.F.);
#117=ADVANCED_FACE('',(#26,#16),#19,.T.);
#118=ADVANCED_FACE('',(#27),#113,.F.);
#119=ADVANCED_FACE('',(#28,#17),#20,.T.);
#120=ADVANCED_FACE('',(#29),#15,.T.);
#121=ADVANCED_FACE('',(#30,#18),#21,.F.);
#122=CLOSED_SHELL('',(#114,#115,#116,#117,#118,#119,#120,#121));
#123=DERIVED_UNIT_ELEMENT(#125,1.);
#124=DERIVED_UNIT_ELEMENT(#256,-3.);
#125=(
MASS_UNIT()
NAMED_UNIT(*)
SI_UNIT(.KILO.,.GRAM.)
);
#126=DERIVED_UNIT((#123,#124));
#127=MEASURE_REPRESENTATION_ITEM('density measure',
POSITIVE_RATIO_MEASURE(1060.),#126);
#128=PROPERTY_DEFINITION_REPRESENTATION(#133,#130);
#129=PROPERTY_DEFINITION_REPRESENTATION(#134,#131);
#130=REPRESENTATION('material name',(#132),#253);
#131=REPRESENTATION('density',(#127),#253);
#132=DESCRIPTIVE_REPRESENTATION_ITEM('Plastique ABS','Plastique ABS');
#133=PROPERTY_DEFINITION('material property','material name',#263);
#134=PROPERTY_DEFINITION('material property','density of part',#263);
#135=AXIS2_PLACEMENT_3D('placement',#193,#153,#154);
#136=AXIS2_PLACEMENT_3D('',#194,#155,#156);
#137=AXIS2_PLACEMENT_3D('',#196,#157,#158);
#138=AXIS2_PLACEMENT_3D('',#200,#160,#161);
#139=AXIS2_PLACEMENT_3D('',#201,#162,#163);
#140=AXIS2_PLACEMENT_3D('',#202,#164,#165);
#141=AXIS2_PLACEMENT_3D('',#204,#166,#167);
#142=AXIS2_PLACEMENT_3D('',#207,#169,#170);
#143=AXIS2_PLACEMENT_3D('',#208,#171,#172);
#144=AXIS2_PLACEMENT_3D('',#210,#173,#174);
#145=AXIS2_PLACEMENT_3D('',#212,#176,#177);
#146=AXIS2_PLACEMENT_3D('',#214,#178,#179);
#147=AXIS2_PLACEMENT_3D('',#215,#180,#181);
#148=AXIS2_PLACEMENT_3D('',#217,#182,#183);
#149=AXIS2_PLACEMENT_3D('',#220,#185,#186);
#150=AXIS2_PLACEMENT_3D('',#221,#187,#188);
#151=AXIS2_PLACEMENT_3D('',#249,#189,#190);
#152=AXIS2_PLACEMENT_3D('',#250,#191,#192);
#153=DIRECTION('axis',(0.,0.,1.));
#154=DIRECTION('refdir',(1.,0.,0.));
#155=DIRECTION('center_axis',(0.,0.,1.));
#156=DIRECTION('ref_axis',(1.,0.,0.));
#157=DIRECTION('center_axis',(0.,0.,-1.));
#158=DIRECTION('ref_axis',(1.,0.,0.));
#159=DIRECTION('',(0.,0.,1.));
#160=DIRECTION('center_axis',(0.,0.,1.));
#161=DIRECTION('ref_axis',(1.,0.,0.));
#162=DIRECTION('center_axis',(0.,0.,1.));
#163=DIRECTION('ref_axis',(1.,0.,0.));
#164=DIRECTION('center_axis',(0.,0.,1.));
#165=DIRECTION('ref_axis',(1.,0.,0.));
#166=DIRECTION('center_axis',(0.,0.,1.));
#167=DIRECTION('ref_axis',(1.,0.,0.));
#168=DIRECTION('',(0.707106781186547,8.65956056235493E-17,-0.707106781186547));
#169=DIRECTION('center_axis',(0.,0.,-1.));
#170=DIRECTION('ref_axis',(1.,0.,0.));
#171=DIRECTION('center_axis',(0.,0.,1.));
#172=DIRECTION('ref_axis',(1.,0.,0.));
#173=DIRECTION('center_axis',(0.,0.,1.));
#174=DIRECTION('ref_axis',(1.,0.,0.));
#175=DIRECTION('',(0.,0.,1.));
#176=DIRECTION('center_axis',(0.,0.,1.));
#177=DIRECTION('ref_axis',(1.,0.,0.));
#178=DIRECTION('center_axis',(0.,0.,-1.));
#179=DIRECTION('ref_axis',(-1.,0.,0.));
#180=DIRECTION('center_axis',(0.,0.,1.));
#181=DIRECTION('ref_axis',(1.,0.,0.));
#182=DIRECTION('center_axis',(0.,0.,1.));
#183=DIRECTION('ref_axis',(1.,0.,0.));
#184=DIRECTION('',(0.,0.,1.));
#185=DIRECTION('center_axis',(0.,0.,1.));
#186=DIRECTION('ref_axis',(1.,0.,0.));
#187=DIRECTION('center_axis',(0.,0.,-1.));
#188=DIRECTION('ref_axis',(1.,0.,0.));
#189=DIRECTION('center_axis',(1.22464679914735E-16,1.,0.));
#190=DIRECTION('ref_axis',(1.,-1.22464679914735E-16,0.));
#191=DIRECTION('center_axis',(0.,0.,1.));
#192=DIRECTION('ref_axis',(1.,0.,0.));
#193=CARTESIAN_POINT('',(0.,0.,0.));
#194=CARTESIAN_POINT('Origin',(0.,0.,0.));
#195=CARTESIAN_POINT('',(-10.5,1.28587913910472E-15,0.));
#196=CARTESIAN_POINT('Origin',(0.,0.,0.));
#197=CARTESIAN_POINT('',(-10.5,-1.28587913910472E-15,2.92885966502296));
#198=CARTESIAN_POINT('',(-10.5,-1.28587913910472E-15,0.));
#199=CARTESIAN_POINT('',(10.5,-1.28587913910472E-15,2.92885966502296));
#200=CARTESIAN_POINT('Origin',(0.,0.,2.92885966502296));
#201=CARTESIAN_POINT('Origin',(0.,0.,2.92885966502296));
#202=CARTESIAN_POINT('Origin',(0.,0.,5.2));
#203=CARTESIAN_POINT('',(-3.1,-3.7964050773568E-16,6.));
#204=CARTESIAN_POINT('Origin',(0.,0.,6.));
#205=CARTESIAN_POINT('',(-1.5,1.83697019872103E-16,4.4));
#206=CARTESIAN_POINT('',(-2.3,-2.81668763803891E-16,5.2));
#207=CARTESIAN_POINT('Origin',(0.,0.,4.4));
#208=CARTESIAN_POINT('Origin',(0.,0.,3.2));
#209=CARTESIAN_POINT('',(-1.5,1.83697019872103E-16,3.2));
#210=CARTESIAN_POINT('Origin',(0.,0.,3.2));
#211=CARTESIAN_POINT('',(-1.5,-1.83697019872103E-16,3.2));
#212=CARTESIAN_POINT('Origin',(0.,0.,6.));
#213=CARTESIAN_POINT('',(3.2048399691022,-3.92479700994051E-16,6.));
#214=CARTESIAN_POINT('Origin',(0.,0.,6.));
#215=CARTESIAN_POINT('Origin',(0.,0.,0.));
#216=CARTESIAN_POINT('',(-4.05,4.95981953654678E-16,0.));
#217=CARTESIAN_POINT('Origin',(0.,0.,0.));
#218=CARTESIAN_POINT('',(-4.05,4.95981953654678E-16,3.2));
#219=CARTESIAN_POINT('',(-4.05,-4.95981953654678E-16,0.));
#220=CARTESIAN_POINT('Origin',(0.,0.,3.2));
#221=CARTESIAN_POINT('Origin',(0.,0.,3.2));
#222=CARTESIAN_POINT('Ctrl Pts',(10.5,0.,2.92885966502296));
#223=CARTESIAN_POINT('Ctrl Pts',(10.5,-10.5,2.92885966502296));
#224=CARTESIAN_POINT('Ctrl Pts',(0.,-10.5,2.92885966502296));
#225=CARTESIAN_POINT('Ctrl Pts',(-10.5,-10.5,2.92885966502296));
#226=CARTESIAN_POINT('Ctrl Pts',(-10.5,0.,2.92885966502296));
#227=CARTESIAN_POINT('Ctrl Pts',(-10.5,10.5,2.92885966502296));
#228=CARTESIAN_POINT('Ctrl Pts',(0.,10.5,2.92885966502296));
#229=CARTESIAN_POINT('Ctrl Pts',(10.5,10.5,2.92885966502296));
#230=CARTESIAN_POINT('Ctrl Pts',(10.5,0.,2.92885966502296));
#231=CARTESIAN_POINT('Ctrl Pts',(7.49886933707902,0.,6.));
#232=CARTESIAN_POINT('Ctrl Pts',(7.49886933707902,-7.49886933707902,6.));
#233=CARTESIAN_POINT('Ctrl Pts',(0.,-7.49886933707902,6.));
#234=CARTESIAN_POINT('Ctrl Pts',(-7.49886933707902,-7.49886933707902,6.));
#235=CARTESIAN_POINT('Ctrl Pts',(-7.49886933707902,0.,6.));
#236=CARTESIAN_POINT('Ctrl Pts',(-7.49886933707902,7.49886933707902,6.));
#237=CARTESIAN_POINT('Ctrl Pts',(0.,7.49886933707902,6.));
#238=CARTESIAN_POINT('Ctrl Pts',(7.49886933707902,7.49886933707902,6.));
#239=CARTESIAN_POINT('Ctrl Pts',(7.49886933707902,0.,6.));
#240=CARTESIAN_POINT('Ctrl Pts',(3.2048399691022,0.,6.));
#241=CARTESIAN_POINT('Ctrl Pts',(3.2048399691022,-3.2048399691022,6.));
#242=CARTESIAN_POINT('Ctrl Pts',(0.,-3.2048399691022,6.));
#243=CARTESIAN_POINT('Ctrl Pts',(-3.2048399691022,-3.2048399691022,6.));
#244=CARTESIAN_POINT('Ctrl Pts',(-3.2048399691022,0.,6.));
#245=CARTESIAN_POINT('Ctrl Pts',(-3.2048399691022,3.2048399691022,6.));
#246=CARTESIAN_POINT('Ctrl Pts',(0.,3.2048399691022,6.));
#247=CARTESIAN_POINT('Ctrl Pts',(3.2048399691022,3.2048399691022,6.));
#248=CARTESIAN_POINT('Ctrl Pts',(3.2048399691022,0.,6.));
#249=CARTESIAN_POINT('Origin',(3.2048399691022,-3.92479700994051E-16,-4.2));
#250=CARTESIAN_POINT('Origin',(0.,0.,0.));
#251=UNCERTAINTY_MEASURE_WITH_UNIT(LENGTH_MEASURE(0.01),#255,
'DISTANCE_ACCURACY_VALUE',
'Maximum model space distance between geometric entities at asserted c
onnectivities');
#252=UNCERTAINTY_MEASURE_WITH_UNIT(LENGTH_MEASURE(0.01),#255,
'DISTANCE_ACCURACY_VALUE',
'Maximum model space distance between geometric entities at asserted c
onnectivities');
#253=(
GEOMETRIC_REPRESENTATION_CONTEXT(3)
GLOBAL_UNCERTAINTY_ASSIGNED_CONTEXT((#251))
GLOBAL_UNIT_ASSIGNED_CONTEXT((#255,#257,#258))
REPRESENTATION_CONTEXT('','3D')
);
#254=(
GEOMETRIC_REPRESENTATION_CONTEXT(3)
GLOBAL_UNCERTAINTY_ASSIGNED_CONTEXT((#252))
GLOBAL_UNIT_ASSIGNED_CONTEXT((#255,#257,#258))
REPRESENTATION_CONTEXT('','3D')
);
#255=(
LENGTH_UNIT()
NAMED_UNIT(*)
SI_UNIT(.MILLI.,.METRE.)
);
#256=(
LENGTH_UNIT()
NAMED_UNIT(*)
SI_UNIT($,.METRE.)
);
#257=(
NAMED_UNIT(*)
PLANE_ANGLE_UNIT()
SI_UNIT($,.RADIAN.)
);
#258=(
NAMED_UNIT(*)
SI_UNIT($,.STERADIAN.)
SOLID_ANGLE_UNIT()
);
#259=SHAPE_DEFINITION_REPRESENTATION(#260,#261);
#260=PRODUCT_DEFINITION_SHAPE('',$,#263);
#261=SHAPE_REPRESENTATION('',(#135),#253);
#262=PRODUCT_DEFINITION_CONTEXT('part definition',#267,'design');
#263=PRODUCT_DEFINITION('V7 PIED','V7 PIED v2',#264,#262);
#264=PRODUCT_DEFINITION_FORMATION('',$,#269);
#265=PRODUCT_RELATED_PRODUCT_CATEGORY('V7 PIED v2','V7 PIED v2',(#269));
#266=APPLICATION_PROTOCOL_DEFINITION('international standard',
'automotive_design',2009,#267);
#267=APPLICATION_CONTEXT(
'Core Data for Automotive Mechanical Design Process');
#268=PRODUCT_CONTEXT('part definition',#267,'mechanical');
#269=PRODUCT('V7 PIED','V7 PIED v2',$,(#268));
#270=PRESENTATION_STYLE_ASSIGNMENT((#271));
#271=SURFACE_STYLE_USAGE(.BOTH.,#272);
#272=SURFACE_SIDE_STYLE('',(#273));
#273=SURFACE_STYLE_FILL_AREA(#274);
#274=FILL_AREA_STYLE('ABS (blanc)',(#275));
#275=FILL_AREA_STYLE_COLOUR('ABS (blanc)',#276);
#276=COLOUR_RGB('ABS (blanc)',0.964705882352941,0.964705882352941,0.952941176470588);
ENDSEC;
END-ISO-10303-21;
