ISO-10303-21;
HEADER;
FILE_DESCRIPTION(('CATIA V5 STEP Exchange'),'2;1');

FILE_NAME('\\\\Bts_cprp\\cprp23_bazaga\\Catia\\04_Optimisation du processus des fl\X2\00E8\X0\ches\\Fleche.stp','2021-10-11T12:05:34+00:00',('none'),('none'),'CATIA Version 5 Release 19 SP 6 (IN-10)','CATIA V5 STEP AP203','none');

FILE_SCHEMA(('CONFIG_CONTROL_DESIGN'));

ENDSEC;
/* file written by CATIA V5R19 */
DATA;
#5=PRODUCT('Fleche X','','',(#2)) ;
#1=APPLICATION_CONTEXT('configuration controlled 3D design of mechanical parts and assemblies') ;
#14=PRODUCT_DEFINITION('',' ',#6,#3) ;
#16=SECURITY_CLASSIFICATION(' ',' ',#15) ;
#15=SECURITY_CLASSIFICATION_LEVEL('unclassified') ;
#47=CARTESIAN_POINT(' ',(0.,0.,0.)) ;
#52=CARTESIAN_POINT('Axis2P3D Location',(0.,11.7320508076,0.)) ;
#57=CARTESIAN_POINT('Line Origine',(-1.31637384284,10.8660254038,0.719138307906)) ;
#61=CARTESIAN_POINT('Vertex',(0.,11.7320508076,0.)) ;
#63=CARTESIAN_POINT('Vertex',(-2.63274768567,10.,1.43827661581)) ;
#66=CARTESIAN_POINT('Axis2P3D Location',(0.,10.,0.)) ;
#70=CARTESIAN_POINT('Vertex',(2.63274768567,10.,-1.43827661581)) ;
#73=CARTESIAN_POINT('Line Origine',(1.31637384284,10.8660254038,-0.719138307906)) ;
#84=CARTESIAN_POINT('Axis2P3D Location',(0.,23.,0.)) ;
#89=CARTESIAN_POINT('Line Origine',(0.,-1.06581410364E-014,-13.)) ;
#93=CARTESIAN_POINT('Vertex',(-4.,0.,-13.)) ;
#95=CARTESIAN_POINT('Vertex',(4.,0.,-13.)) ;
#98=CARTESIAN_POINT('Line Origine',(-4.,11.5,-6.5)) ;
#102=CARTESIAN_POINT('Vertex',(-4.,23.,0.)) ;
#105=CARTESIAN_POINT('Line Origine',(0.,23.,0.)) ;
#109=CARTESIAN_POINT('Vertex',(4.,23.,0.)) ;
#112=CARTESIAN_POINT('Line Origine',(4.,11.5,-6.5)) ;
#124=CARTESIAN_POINT('Axis2P3D Location',(0.,0.,13.)) ;
#129=CARTESIAN_POINT('Line Origine',(-4.,11.5,6.5)) ;
#133=CARTESIAN_POINT('Vertex',(-4.,0.,13.)) ;
#136=CARTESIAN_POINT('Line Origine',(0.,0.,13.)) ;
#140=CARTESIAN_POINT('Vertex',(4.,0.,13.)) ;
#143=CARTESIAN_POINT('Line Origine',(4.,11.5,6.5)) ;
#155=CARTESIAN_POINT('Axis2P3D Location',(4.,0.,0.)) ;
#160=CARTESIAN_POINT('Line Origine',(4.,0.,0.)) ;
#171=CARTESIAN_POINT('Axis2P3D Location',(0.,0.,-13.)) ;
#176=CARTESIAN_POINT('Line Origine',(-4.,0.,0.)) ;
#187=CARTESIAN_POINT('Axis2P3D Location',(-1.11022302463E-016,0.,0.)) ;
#191=CARTESIAN_POINT('Vertex',(-2.63274768567,3.60822483003E-016,1.43827661581)) ;
#193=CARTESIAN_POINT('Vertex',(2.63274768567,3.60822483003E-016,-1.43827661581)) ;
#196=CARTESIAN_POINT('Axis2P3D Location',(3.33066907388E-016,0.,0.)) ;
#206=CARTESIAN_POINT('Axis2P3D Location',(0.,0.1,0.)) ;
#211=CARTESIAN_POINT('Line Origine',(-2.63274768567,4.84499999988,1.43827661581)) ;
#216=CARTESIAN_POINT('Axis2P3D Location',(0.,10.,0.)) ;
#221=CARTESIAN_POINT('Line Origine',(2.63274768567,4.84499999988,-1.43827661581)) ;
#246=CARTESIAN_POINT('Axis2P3D Location',(0.,1.90372713683,2.62965892103)) ;
#251=CARTESIAN_POINT('Line Origine',(-4.,3.,4.)) ;
#255=CARTESIAN_POINT('Vertex',(-4.,3.18033392693,4.22541740867)) ;
#257=CARTESIAN_POINT('Vertex',(-4.,2.81966607307,3.77458259133)) ;
#260=CARTESIAN_POINT('Line Origine',(-3.75,3.09016696347,4.11270870433)) ;
#264=CARTESIAN_POINT('Vertex',(-3.5,3.,4.)) ;
#267=CARTESIAN_POINT('Line Origine',(-3.75,2.90983303653,3.88729129567)) ;
#278=CARTESIAN_POINT('Axis2P3D Location',(0.,11.9037271368,-5.37034107897)) ;
#283=CARTESIAN_POINT('Line Origine',(-3.75,12.9098330365,-4.11270870433)) ;
#287=CARTESIAN_POINT('Vertex',(-4.,12.8196660731,-4.22541740867)) ;
#289=CARTESIAN_POINT('Vertex',(-3.5,13.,-4.)) ;
#292=CARTESIAN_POINT('Line Origine',(-3.75,13.0901669635,-3.88729129567)) ;
#296=CARTESIAN_POINT('Vertex',(-4.,13.1803339269,-3.77458259133)) ;
#299=CARTESIAN_POINT('Line Origine',(-4.,13.,-4.)) ;
#310=CARTESIAN_POINT('Axis2P3D Location',(-4.25,13.2705008904,-3.661873887)) ;
#315=CARTESIAN_POINT('Line Origine',(-3.5,5.5,2.)) ;
#319=CARTESIAN_POINT('Vertex',(-3.5,8.,-1.7763568394E-015)) ;
#322=CARTESIAN_POINT('Line Origine',(-4.,5.59016696347,2.29755097944)) ;
#326=CARTESIAN_POINT('Vertex',(-4.,8.,0.369684550214)) ;
#329=CARTESIAN_POINT('Line Origine',(-3.75,8.,0.184842275107)) ;
#341=CARTESIAN_POINT('Line Origine',(-4.,10.8212198074,-1.88729129567)) ;
#345=CARTESIAN_POINT('Vertex',(-4.,8.46210568777,-1.97064586871E-015)) ;
#348=CARTESIAN_POINT('Line Origine',(-3.5,10.5,-2.)) ;
#353=CARTESIAN_POINT('Line Origine',(-3.75,8.23105284388,-3.33066907388E-015)) ;
#365=CARTESIAN_POINT('Axis2P3D Location',(-3.5,13.,-4.)) ;
#370=CARTESIAN_POINT('Line Origine',(-4.,10.4098330365,-2.29755097944)) ;
#374=CARTESIAN_POINT('Vertex',(-4.,8.,-0.369684550214)) ;
#377=CARTESIAN_POINT('Line Origine',(-3.75,8.,-0.184842275107)) ;
#389=CARTESIAN_POINT('Line Origine',(-4.,5.17878019265,1.88729129567)) ;
#393=CARTESIAN_POINT('Vertex',(-4.,7.53789431223,-2.85882428841E-015)) ;
#396=CARTESIAN_POINT('Line Origine',(-3.75,7.76894715612,-2.22044604925E-015)) ;
#408=CARTESIAN_POINT('Axis2P3D Location',(-4.,0.,0.)) ;
#418=CARTESIAN_POINT('Line Origine',(-4.,5.17878019265,-1.88729129567)) ;
#422=CARTESIAN_POINT('Vertex',(-4.,2.81966607307,-3.77458259133)) ;
#425=CARTESIAN_POINT('Line Origine',(-4.,3.,-4.)) ;
#429=CARTESIAN_POINT('Vertex',(-4.,3.18033392693,-4.22541740867)) ;
#432=CARTESIAN_POINT('Line Origine',(-4.,5.59016696347,-2.29755097944)) ;
#437=CARTESIAN_POINT('Line Origine',(-4.,10.8212198074,1.88729129567)) ;
#441=CARTESIAN_POINT('Vertex',(-4.,13.1803339269,3.77458259133)) ;
#444=CARTESIAN_POINT('Line Origine',(-4.,13.,4.)) ;
#448=CARTESIAN_POINT('Vertex',(-4.,12.8196660731,4.22541740867)) ;
#451=CARTESIAN_POINT('Line Origine',(-4.,10.4098330365,2.29755097944)) ;
#471=CARTESIAN_POINT('Axis2P3D Location',(0.,1.90372713683,-2.62965892103)) ;
#476=CARTESIAN_POINT('Line Origine',(-3.75,2.90983303653,-3.88729129567)) ;
#480=CARTESIAN_POINT('Vertex',(-3.5,3.,-4.)) ;
#483=CARTESIAN_POINT('Line Origine',(-3.75,3.09016696347,-4.11270870433)) ;
#494=CARTESIAN_POINT('Axis2P3D Location',(-3.5,13.,4.)) ;
#499=CARTESIAN_POINT('Line Origine',(-3.5,5.5,-2.)) ;
#511=CARTESIAN_POINT('Axis2P3D Location',(-4.25,13.2705008904,3.661873887)) ;
#523=CARTESIAN_POINT('Axis2P3D Location',(0.,11.9037271368,5.37034107897)) ;
#528=CARTESIAN_POINT('Line Origine',(-3.75,13.0901669635,3.88729129567)) ;
#532=CARTESIAN_POINT('Vertex',(-3.5,13.,4.)) ;
#535=CARTESIAN_POINT('Line Origine',(-3.75,12.9098330365,4.11270870433)) ;
#546=CARTESIAN_POINT('Line Origine',(-3.5,10.5,2.)) ;
#568=CARTESIAN_POINT('Line Origine',(-4.,8.,-3.5527136788E-015)) ;
#572=CARTESIAN_POINT('Limit',(-4.,13.,-4.)) ;
#573=CARTESIAN_POINT('Limit',(-4.,3.,4.)) ;
#580=CARTESIAN_POINT('Line Origine',(-4.,8.,1.7763568394E-015)) ;
#584=CARTESIAN_POINT('Limit',(-4.,13.,4.)) ;
#585=CARTESIAN_POINT('Limit',(-4.,3.,-4.)) ;
#53=DIRECTION('Axis2P3D Direction',(0.,-1.,0.)) ;
#54=DIRECTION('Axis2P3D XDirection',(0.87758256189,0.,-0.479425538604)) ;
#58=DIRECTION('Vector Direction',(-0.760008792515,-0.5,0.415194695654)) ;
#67=DIRECTION('Axis2P3D Direction',(0.,-1.,0.)) ;
#74=DIRECTION('Vector Direction',(0.760008792515,-0.5,-0.415194695654)) ;
#85=DIRECTION('Axis2P3D Direction',(0.,-0.492057256668,0.87056283872)) ;
#86=DIRECTION('Axis2P3D XDirection',(0.,-0.87056283872,-0.492057256668)) ;
#90=DIRECTION('Vector Direction',(1.,0.,0.)) ;
#99=DIRECTION('Vector Direction',(0.,-0.87056283872,-0.492057256668)) ;
#106=DIRECTION('Vector Direction',(1.,0.,0.)) ;
#113=DIRECTION('Vector Direction',(0.,-0.87056283872,-0.492057256668)) ;
#125=DIRECTION('Axis2P3D Direction',(0.,-0.492057256668,-0.87056283872)) ;
#126=DIRECTION('Axis2P3D XDirection',(0.,0.87056283872,-0.492057256668)) ;
#130=DIRECTION('Vector Direction',(0.,0.87056283872,-0.492057256668)) ;
#137=DIRECTION('Vector Direction',(1.,0.,0.)) ;
#144=DIRECTION('Vector Direction',(0.,0.87056283872,-0.492057256668)) ;
#156=DIRECTION('Axis2P3D Direction',(1.,0.,0.)) ;
#157=DIRECTION('Axis2P3D XDirection',(0.,1.,0.)) ;
#161=DIRECTION('Vector Direction',(0.,0.,1.)) ;
#172=DIRECTION('Axis2P3D Direction',(0.,1.,0.)) ;
#173=DIRECTION('Axis2P3D XDirection',(0.,0.,1.)) ;
#177=DIRECTION('Vector Direction',(0.,0.,1.)) ;
#188=DIRECTION('Axis2P3D Direction',(0.,1.,0.)) ;
#197=DIRECTION('Axis2P3D Direction',(0.,1.,0.)) ;
#207=DIRECTION('Axis2P3D Direction',(-0.,1.,0.)) ;
#208=DIRECTION('Axis2P3D XDirection',(0.87758256189,0.,-0.479425538604)) ;
#212=DIRECTION('Vector Direction',(0.,1.,0.)) ;
#217=DIRECTION('Axis2P3D Direction',(-0.,1.,0.)) ;
#222=DIRECTION('Vector Direction',(0.,1.,0.)) ;
#247=DIRECTION('Axis2P3D Direction',(0.,-0.780868809443,0.624695047554)) ;
#248=DIRECTION('Axis2P3D XDirection',(1.,0.,0.)) ;
#252=DIRECTION('Vector Direction',(0.,-0.624695047554,-0.780868809443)) ;
#261=DIRECTION('Vector Direction',(0.866025403784,-0.312347523777,-0.390434404722)) ;
#268=DIRECTION('Vector Direction',(-0.866025403784,-0.312347523777,-0.390434404722)) ;
#279=DIRECTION('Axis2P3D Direction',(0.,-0.780868809443,0.624695047554)) ;
#280=DIRECTION('Axis2P3D XDirection',(1.,0.,0.)) ;
#284=DIRECTION('Vector Direction',(-0.866025403784,-0.312347523777,-0.390434404722)) ;
#293=DIRECTION('Vector Direction',(0.866025403784,-0.312347523777,-0.390434404722)) ;
#300=DIRECTION('Vector Direction',(0.,-0.624695047554,-0.780868809443)) ;
#311=DIRECTION('Axis2P3D Direction',(-0.5,-0.5410017808,-0.676252226001)) ;
#312=DIRECTION('Axis2P3D XDirection',(0.866025403784,-0.312347523777,-0.390434404722)) ;
#316=DIRECTION('Vector Direction',(0.,-0.780868809443,0.624695047554)) ;
#323=DIRECTION('Vector Direction',(0.,0.780868809443,-0.624695047554)) ;
#330=DIRECTION('Vector Direction',(-0.804084401128,2.57101348572E-014,0.59451516033)) ;
#342=DIRECTION('Vector Direction',(0.,0.780868809443,-0.624695047554)) ;
#349=DIRECTION('Vector Direction',(0.,-0.780868809443,0.624695047554)) ;
#354=DIRECTION('Vector Direction',(-0.734388073635,0.67872981171,5.87040874819E-015)) ;
#366=DIRECTION('Axis2P3D Direction',(-0.5,0.5410017808,0.676252226001)) ;
#367=DIRECTION('Axis2P3D XDirection',(-0.866025403784,-0.312347523777,-0.390434404722)) ;
#371=DIRECTION('Vector Direction',(0.,0.780868809443,-0.624695047554)) ;
#378=DIRECTION('Vector Direction',(-0.804084401128,1.28550674286E-014,-0.59451516033)) ;
#390=DIRECTION('Vector Direction',(0.,0.780868809443,-0.624695047554)) ;
#397=DIRECTION('Vector Direction',(-0.734388073635,-0.67872981171,-1.30453527737E-015)) ;
#409=DIRECTION('Axis2P3D Direction',(1.,0.,0.)) ;
#410=DIRECTION('Axis2P3D XDirection',(0.,1.,0.)) ;
#419=DIRECTION('Vector Direction',(0.,0.780868809443,0.624695047554)) ;
#426=DIRECTION('Vector Direction',(0.,-0.624695047554,0.780868809443)) ;
#433=DIRECTION('Vector Direction',(0.,0.780868809443,0.624695047554)) ;
#438=DIRECTION('Vector Direction',(0.,0.780868809443,0.624695047554)) ;
#445=DIRECTION('Vector Direction',(0.,-0.624695047554,0.780868809443)) ;
#452=DIRECTION('Vector Direction',(0.,0.780868809443,0.624695047554)) ;
#472=DIRECTION('Axis2P3D Direction',(-0.,0.780868809443,0.624695047554)) ;
#473=DIRECTION('Axis2P3D XDirection',(1.,0.,0.)) ;
#477=DIRECTION('Vector Direction',(-0.866025403784,-0.312347523777,0.390434404722)) ;
#484=DIRECTION('Vector Direction',(0.866025403784,-0.312347523777,0.390434404722)) ;
#495=DIRECTION('Axis2P3D Direction',(0.5,-0.5410017808,0.676252226001)) ;
#496=DIRECTION('Axis2P3D XDirection',(-0.866025403784,-0.312347523777,0.390434404722)) ;
#500=DIRECTION('Vector Direction',(0.,-0.780868809443,-0.624695047554)) ;
#512=DIRECTION('Axis2P3D Direction',(0.5,0.5410017808,-0.676252226001)) ;
#513=DIRECTION('Axis2P3D XDirection',(0.866025403784,-0.312347523777,0.390434404722)) ;
#524=DIRECTION('Axis2P3D Direction',(-0.,0.780868809443,0.624695047554)) ;
#525=DIRECTION('Axis2P3D XDirection',(1.,0.,0.)) ;
#529=DIRECTION('Vector Direction',(0.866025403784,-0.312347523777,0.390434404722)) ;
#536=DIRECTION('Vector Direction',(-0.866025403784,-0.312347523777,0.390434404722)) ;
#547=DIRECTION('Vector Direction',(0.,-0.780868809443,-0.624695047554)) ;
#569=DIRECTION('Vector Direction',(0.,-0.780868809443,0.624695047554)) ;
#581=DIRECTION('Vector Direction',(0.,-0.780868809443,-0.624695047554)) ;
#48=AXIS2_PLACEMENT_3D(' ',#47,$,$) ;
#55=AXIS2_PLACEMENT_3D('Cone Axis2P3D',#52,#53,#54) ;
#68=AXIS2_PLACEMENT_3D('Circle Axis2P3D',#66,#67,$) ;
#87=AXIS2_PLACEMENT_3D('Plane Axis2P3D',#84,#85,#86) ;
#127=AXIS2_PLACEMENT_3D('Plane Axis2P3D',#124,#125,#126) ;
#158=AXIS2_PLACEMENT_3D('Plane Axis2P3D',#155,#156,#157) ;
#174=AXIS2_PLACEMENT_3D('Plane Axis2P3D',#171,#172,#173) ;
#189=AXIS2_PLACEMENT_3D('Circle Axis2P3D',#187,#188,$) ;
#198=AXIS2_PLACEMENT_3D('Circle Axis2P3D',#196,#197,$) ;
#209=AXIS2_PLACEMENT_3D('Cylinder Axis2P3D',#206,#207,#208) ;
#218=AXIS2_PLACEMENT_3D('Circle Axis2P3D',#216,#217,$) ;
#249=AXIS2_PLACEMENT_3D('Plane Axis2P3D',#246,#247,#248) ;
#281=AXIS2_PLACEMENT_3D('Plane Axis2P3D',#278,#279,#280) ;
#313=AXIS2_PLACEMENT_3D('Plane Axis2P3D',#310,#311,#312) ;
#368=AXIS2_PLACEMENT_3D('Plane Axis2P3D',#365,#366,#367) ;
#411=AXIS2_PLACEMENT_3D('Plane Axis2P3D',#408,#409,#410) ;
#474=AXIS2_PLACEMENT_3D('Plane Axis2P3D',#471,#472,#473) ;
#497=AXIS2_PLACEMENT_3D('Plane Axis2P3D',#494,#495,#496) ;
#514=AXIS2_PLACEMENT_3D('Plane Axis2P3D',#511,#512,#513) ;
#526=AXIS2_PLACEMENT_3D('Plane Axis2P3D',#523,#524,#525) ;
#40=PRODUCT_DEFINITION_SHAPE(' ',' ',#14) ;
#576=COMPOSITE_CURVE('X projet\X2\00E9\X0\',(#575),.U.) ;
#588=COMPOSITE_CURVE('X projet\X2\00E9\X0\',(#587),.U.) ;
#575=COMPOSITE_CURVE_SEGMENT(.DISCONTINUOUS.,.T.,#574) ;
#587=COMPOSITE_CURVE_SEGMENT(.DISCONTINUOUS.,.T.,#586) ;
#31=APPROVAL_PERSON_ORGANIZATION(#25,#21,#19) ;
#25=PERSON_AND_ORGANIZATION(#22,#23) ;
#22=PERSON(' ',' ',' ',$,$,$) ;
#23=ORGANIZATION(' ',' ',' ') ;
#21=APPROVAL(#20,' ') ;
#20=APPROVAL_STATUS('not_yet_approved') ;
#19=APPROVAL_ROLE('APPROVER') ;
#13=DATE_AND_TIME(#11,#12) ;
#12=LOCAL_TIME(14,5,34.,#10) ;
#10=COORDINATED_UNIVERSAL_TIME_OFFSET(0,0,.AHEAD.) ;
#79=ORIENTED_EDGE('',*,*,#65,.T.) ;
#80=ORIENTED_EDGE('',*,*,#72,.F.) ;
#81=ORIENTED_EDGE('',*,*,#77,.F.) ;
#118=ORIENTED_EDGE('',*,*,#97,.F.) ;
#119=ORIENTED_EDGE('',*,*,#104,.T.) ;
#120=ORIENTED_EDGE('',*,*,#111,.T.) ;
#121=ORIENTED_EDGE('',*,*,#116,.F.) ;
#149=ORIENTED_EDGE('',*,*,#111,.F.) ;
#150=ORIENTED_EDGE('',*,*,#135,.T.) ;
#151=ORIENTED_EDGE('',*,*,#142,.T.) ;
#152=ORIENTED_EDGE('',*,*,#147,.F.) ;
#166=ORIENTED_EDGE('',*,*,#116,.T.) ;
#167=ORIENTED_EDGE('',*,*,#147,.T.) ;
#168=ORIENTED_EDGE('',*,*,#164,.T.) ;
#182=ORIENTED_EDGE('',*,*,#142,.F.) ;
#183=ORIENTED_EDGE('',*,*,#180,.T.) ;
#184=ORIENTED_EDGE('',*,*,#97,.T.) ;
#185=ORIENTED_EDGE('',*,*,#164,.F.) ;
#202=ORIENTED_EDGE('',*,*,#195,.T.) ;
#203=ORIENTED_EDGE('',*,*,#200,.T.) ;
#227=ORIENTED_EDGE('',*,*,#195,.F.) ;
#228=ORIENTED_EDGE('',*,*,#215,.F.) ;
#229=ORIENTED_EDGE('',*,*,#220,.T.) ;
#230=ORIENTED_EDGE('',*,*,#225,.T.) ;
#234=ORIENTED_EDGE('',*,*,#200,.F.) ;
#235=ORIENTED_EDGE('',*,*,#225,.F.) ;
#236=ORIENTED_EDGE('',*,*,#72,.T.) ;
#237=ORIENTED_EDGE('',*,*,#215,.T.) ;
#241=ORIENTED_EDGE('',*,*,#77,.T.) ;
#242=ORIENTED_EDGE('',*,*,#220,.F.) ;
#243=ORIENTED_EDGE('',*,*,#65,.F.) ;
#273=ORIENTED_EDGE('',*,*,#259,.F.) ;
#274=ORIENTED_EDGE('',*,*,#266,.F.) ;
#275=ORIENTED_EDGE('',*,*,#271,.F.) ;
#305=ORIENTED_EDGE('',*,*,#291,.T.) ;
#306=ORIENTED_EDGE('',*,*,#298,.T.) ;
#307=ORIENTED_EDGE('',*,*,#303,.T.) ;
#335=ORIENTED_EDGE('',*,*,#321,.T.) ;
#336=ORIENTED_EDGE('',*,*,#266,.T.) ;
#337=ORIENTED_EDGE('',*,*,#328,.T.) ;
#338=ORIENTED_EDGE('',*,*,#333,.F.) ;
#359=ORIENTED_EDGE('',*,*,#347,.T.) ;
#360=ORIENTED_EDGE('',*,*,#298,.F.) ;
#361=ORIENTED_EDGE('',*,*,#352,.T.) ;
#362=ORIENTED_EDGE('',*,*,#357,.T.) ;
#383=ORIENTED_EDGE('',*,*,#352,.F.) ;
#384=ORIENTED_EDGE('',*,*,#291,.F.) ;
#385=ORIENTED_EDGE('',*,*,#376,.F.) ;
#386=ORIENTED_EDGE('',*,*,#381,.F.) ;
#402=ORIENTED_EDGE('',*,*,#395,.F.) ;
#403=ORIENTED_EDGE('',*,*,#271,.T.) ;
#404=ORIENTED_EDGE('',*,*,#321,.F.) ;
#405=ORIENTED_EDGE('',*,*,#400,.T.) ;
#414=ORIENTED_EDGE('',*,*,#180,.F.) ;
#415=ORIENTED_EDGE('',*,*,#135,.F.) ;
#416=ORIENTED_EDGE('',*,*,#104,.F.) ;
#457=ORIENTED_EDGE('',*,*,#328,.F.) ;
#458=ORIENTED_EDGE('',*,*,#259,.T.) ;
#459=ORIENTED_EDGE('',*,*,#395,.T.) ;
#460=ORIENTED_EDGE('',*,*,#424,.F.) ;
#461=ORIENTED_EDGE('',*,*,#431,.F.) ;
#462=ORIENTED_EDGE('',*,*,#436,.T.) ;
#463=ORIENTED_EDGE('',*,*,#376,.T.) ;
#464=ORIENTED_EDGE('',*,*,#303,.F.) ;
#465=ORIENTED_EDGE('',*,*,#347,.F.) ;
#466=ORIENTED_EDGE('',*,*,#443,.T.) ;
#467=ORIENTED_EDGE('',*,*,#450,.T.) ;
#468=ORIENTED_EDGE('',*,*,#455,.F.) ;
#489=ORIENTED_EDGE('',*,*,#482,.T.) ;
#490=ORIENTED_EDGE('',*,*,#487,.T.) ;
#491=ORIENTED_EDGE('',*,*,#431,.T.) ;
#505=ORIENTED_EDGE('',*,*,#424,.T.) ;
#506=ORIENTED_EDGE('',*,*,#400,.F.) ;
#507=ORIENTED_EDGE('',*,*,#503,.T.) ;
#508=ORIENTED_EDGE('',*,*,#482,.F.) ;
#517=ORIENTED_EDGE('',*,*,#381,.T.) ;
#518=ORIENTED_EDGE('',*,*,#436,.F.) ;
#519=ORIENTED_EDGE('',*,*,#487,.F.) ;
#520=ORIENTED_EDGE('',*,*,#503,.F.) ;
#541=ORIENTED_EDGE('',*,*,#450,.F.) ;
#542=ORIENTED_EDGE('',*,*,#534,.F.) ;
#543=ORIENTED_EDGE('',*,*,#539,.F.) ;
#552=ORIENTED_EDGE('',*,*,#333,.T.) ;
#553=ORIENTED_EDGE('',*,*,#455,.T.) ;
#554=ORIENTED_EDGE('',*,*,#539,.T.) ;
#555=ORIENTED_EDGE('',*,*,#550,.T.) ;
#559=ORIENTED_EDGE('',*,*,#443,.F.) ;
#560=ORIENTED_EDGE('',*,*,#357,.F.) ;
#561=ORIENTED_EDGE('',*,*,#550,.F.) ;
#562=ORIENTED_EDGE('',*,*,#534,.T.) ;
#204=FACE_BOUND('',#201,.T.) ;
#469=FACE_BOUND('',#456,.T.) ;
#51=CLOSED_SHELL('Closed Shell',(#83,#123,#154,#170,#205,#232,#239,#245,#277,#309,#340,#364,#388,#407,#470,#493,#510,#522,#545,#557,#564)) ;
#59=VECTOR('Line Direction',#58,1.) ;
#75=VECTOR('Line Direction',#74,1.) ;
#91=VECTOR('Line Direction',#90,1.) ;
#100=VECTOR('Line Direction',#99,1.) ;
#107=VECTOR('Line Direction',#106,1.) ;
#114=VECTOR('Line Direction',#113,1.) ;
#131=VECTOR('Line Direction',#130,1.) ;
#138=VECTOR('Line Direction',#137,1.) ;
#145=VECTOR('Line Direction',#144,1.) ;
#162=VECTOR('Line Direction',#161,1.) ;
#178=VECTOR('Line Direction',#177,1.) ;
#213=VECTOR('Line Direction',#212,1.) ;
#223=VECTOR('Line Direction',#222,1.) ;
#253=VECTOR('Line Direction',#252,1.) ;
#262=VECTOR('Line Direction',#261,1.) ;
#269=VECTOR('Line Direction',#268,1.) ;
#285=VECTOR('Line Direction',#284,1.) ;
#294=VECTOR('Line Direction',#293,1.) ;
#301=VECTOR('Line Direction',#300,1.) ;
#317=VECTOR('Line Direction',#316,1.) ;
#324=VECTOR('Line Direction',#323,1.) ;
#331=VECTOR('Line Direction',#330,1.) ;
#343=VECTOR('Line Direction',#342,1.) ;
#350=VECTOR('Line Direction',#349,1.) ;
#355=VECTOR('Line Direction',#354,1.) ;
#372=VECTOR('Line Direction',#371,1.) ;
#379=VECTOR('Line Direction',#378,1.) ;
#391=VECTOR('Line Direction',#390,1.) ;
#398=VECTOR('Line Direction',#397,1.) ;
#420=VECTOR('Line Direction',#419,1.) ;
#427=VECTOR('Line Direction',#426,1.) ;
#434=VECTOR('Line Direction',#433,1.) ;
#439=VECTOR('Line Direction',#438,1.) ;
#446=VECTOR('Line Direction',#445,1.) ;
#453=VECTOR('Line Direction',#452,1.) ;
#478=VECTOR('Line Direction',#477,1.) ;
#485=VECTOR('Line Direction',#484,1.) ;
#501=VECTOR('Line Direction',#500,1.) ;
#530=VECTOR('Line Direction',#529,1.) ;
#537=VECTOR('Line Direction',#536,1.) ;
#548=VECTOR('Line Direction',#547,1.) ;
#570=VECTOR('Line Direction',#569,1.) ;
#582=VECTOR('Line Direction',#581,1.) ;
#566=ADVANCED_BREP_SHAPE_REPRESENTATION('NONE',(#565),#46) ;
#49=SHAPE_REPRESENTATION(' ',(#48),#46) ;
#83=ADVANCED_FACE('Corps principal',(#82),#56,.F.) ;
#123=ADVANCED_FACE('Corps principal',(#122),#88,.F.) ;
#154=ADVANCED_FACE('Corps principal',(#153),#128,.F.) ;
#170=ADVANCED_FACE('Corps principal',(#169),#159,.T.) ;
#205=ADVANCED_FACE('Corps principal',(#186,#204),#175,.F.) ;
#232=ADVANCED_FACE('Corps principal',(#231),#210,.F.) ;
#239=ADVANCED_FACE('Corps principal',(#238),#210,.F.) ;
#245=ADVANCED_FACE('Corps principal',(#244),#56,.F.) ;
#277=ADVANCED_FACE('Corps principal',(#276),#250,.F.) ;
#309=ADVANCED_FACE('Corps principal',(#308),#282,.T.) ;
#340=ADVANCED_FACE('Corps principal',(#339),#314,.T.) ;
#364=ADVANCED_FACE('Corps principal',(#363),#314,.T.) ;
#388=ADVANCED_FACE('Corps principal',(#387),#369,.T.) ;
#407=ADVANCED_FACE('Corps principal',(#406),#369,.T.) ;
#470=ADVANCED_FACE('Corps principal',(#417,#469),#412,.F.) ;
#493=ADVANCED_FACE('Corps principal',(#492),#475,.T.) ;
#510=ADVANCED_FACE('Corps principal',(#509),#498,.F.) ;
#522=ADVANCED_FACE('Corps principal',(#521),#515,.F.) ;
#545=ADVANCED_FACE('Corps principal',(#544),#527,.F.) ;
#557=ADVANCED_FACE('Corps principal',(#556),#498,.F.) ;
#564=ADVANCED_FACE('Corps principal',(#563),#515,.F.) ;
#4=APPLICATION_PROTOCOL_DEFINITION('international standard','config_control_design',1994,#1) ;
#32=APPROVAL_DATE_TIME(#13,#21) ;
#565=MANIFOLD_SOLID_BREP('Corps principal',#51) ;
#11=CALENDAR_DATE(2021,11,10) ;
#30=CC_DESIGN_APPROVAL(#21,(#16,#6,#14)) ;
#18=CC_DESIGN_DATE_AND_TIME_ASSIGNMENT(#13,#17,(#16)) ;
#29=CC_DESIGN_DATE_AND_TIME_ASSIGNMENT(#13,#28,(#14)) ;
#17=DATE_TIME_ROLE('classification_date') ;
#28=DATE_TIME_ROLE('creation_date') ;
#27=CC_DESIGN_PERSON_AND_ORGANIZATION_ASSIGNMENT(#25,#26,(#16)) ;
#33=CC_DESIGN_PERSON_AND_ORGANIZATION_ASSIGNMENT(#25,#34,(#6)) ;
#35=CC_DESIGN_PERSON_AND_ORGANIZATION_ASSIGNMENT(#25,#36,(#6,#14)) ;
#37=CC_DESIGN_PERSON_AND_ORGANIZATION_ASSIGNMENT(#25,#38,(#5)) ;
#26=PERSON_AND_ORGANIZATION_ROLE('classification_officer') ;
#34=PERSON_AND_ORGANIZATION_ROLE('design_supplier') ;
#36=PERSON_AND_ORGANIZATION_ROLE('creator') ;
#38=PERSON_AND_ORGANIZATION_ROLE('design_owner') ;
#39=CC_DESIGN_SECURITY_CLASSIFICATION(#16,(#6)) ;
#69=CIRCLE('generated circle',#68,3.) ;
#190=CIRCLE('generated circle',#189,3.) ;
#199=CIRCLE('generated circle',#198,3.) ;
#219=CIRCLE('generated circle',#218,3.) ;
#56=CONICAL_SURFACE('Cone',#55,0.,1.0471975512) ;
#567=SHAPE_REPRESENTATION_RELATIONSHIP(' ',' ',#49,#566) ;
#579=SHAPE_REPRESENTATION_RELATIONSHIP(' ',' ',#49,#577) ;
#210=CYLINDRICAL_SURFACE('generated cylinder',#209,3.) ;
#3=DESIGN_CONTEXT(' ',#1,'design') ;
#65=EDGE_CURVE('',#62,#64,#60,.T.) ;
#72=EDGE_CURVE('',#71,#64,#69,.F.) ;
#77=EDGE_CURVE('',#62,#71,#76,.T.) ;
#97=EDGE_CURVE('',#94,#96,#92,.T.) ;
#104=EDGE_CURVE('',#94,#103,#101,.F.) ;
#111=EDGE_CURVE('',#103,#110,#108,.T.) ;
#116=EDGE_CURVE('',#96,#110,#115,.F.) ;
#135=EDGE_CURVE('',#103,#134,#132,.F.) ;
#142=EDGE_CURVE('',#134,#141,#139,.T.) ;
#147=EDGE_CURVE('',#110,#141,#146,.F.) ;
#164=EDGE_CURVE('',#141,#96,#163,.F.) ;
#180=EDGE_CURVE('',#134,#94,#179,.F.) ;
#195=EDGE_CURVE('',#192,#194,#190,.T.) ;
#200=EDGE_CURVE('',#194,#192,#199,.T.) ;
#215=EDGE_CURVE('',#64,#192,#214,.F.) ;
#220=EDGE_CURVE('',#64,#71,#219,.T.) ;
#225=EDGE_CURVE('',#71,#194,#224,.F.) ;
#259=EDGE_CURVE('',#256,#258,#254,.T.) ;
#266=EDGE_CURVE('',#265,#256,#263,.F.) ;
#271=EDGE_CURVE('',#258,#265,#270,.F.) ;
#291=EDGE_CURVE('',#288,#290,#286,.F.) ;
#298=EDGE_CURVE('',#290,#297,#295,.F.) ;
#303=EDGE_CURVE('',#297,#288,#302,.T.) ;
#321=EDGE_CURVE('',#320,#265,#318,.T.) ;
#328=EDGE_CURVE('',#256,#327,#325,.T.) ;
#333=EDGE_CURVE('',#320,#327,#332,.T.) ;
#347=EDGE_CURVE('',#346,#297,#344,.T.) ;
#352=EDGE_CURVE('',#290,#320,#351,.T.) ;
#357=EDGE_CURVE('',#320,#346,#356,.T.) ;
#376=EDGE_CURVE('',#375,#288,#373,.T.) ;
#381=EDGE_CURVE('',#320,#375,#380,.T.) ;
#395=EDGE_CURVE('',#258,#394,#392,.T.) ;
#400=EDGE_CURVE('',#320,#394,#399,.T.) ;
#424=EDGE_CURVE('',#423,#394,#421,.T.) ;
#431=EDGE_CURVE('',#430,#423,#428,.T.) ;
#436=EDGE_CURVE('',#430,#375,#435,.T.) ;
#443=EDGE_CURVE('',#346,#442,#440,.T.) ;
#450=EDGE_CURVE('',#442,#449,#447,.T.) ;
#455=EDGE_CURVE('',#327,#449,#454,.T.) ;
#482=EDGE_CURVE('',#423,#481,#479,.F.) ;
#487=EDGE_CURVE('',#481,#430,#486,.F.) ;
#503=EDGE_CURVE('',#320,#481,#502,.T.) ;
#534=EDGE_CURVE('',#533,#442,#531,.F.) ;
#539=EDGE_CURVE('',#449,#533,#538,.F.) ;
#550=EDGE_CURVE('',#533,#320,#549,.T.) ;
#78=EDGE_LOOP('',(#79,#80,#81)) ;
#117=EDGE_LOOP('',(#118,#119,#120,#121)) ;
#148=EDGE_LOOP('',(#149,#150,#151,#152)) ;
#165=EDGE_LOOP('',(#166,#167,#168)) ;
#181=EDGE_LOOP('',(#182,#183,#184,#185)) ;
#201=EDGE_LOOP('',(#202,#203)) ;
#226=EDGE_LOOP('',(#227,#228,#229,#230)) ;
#233=EDGE_LOOP('',(#234,#235,#236,#237)) ;
#240=EDGE_LOOP('',(#241,#242,#243)) ;
#272=EDGE_LOOP('',(#273,#274,#275)) ;
#304=EDGE_LOOP('',(#305,#306,#307)) ;
#334=EDGE_LOOP('',(#335,#336,#337,#338)) ;
#358=EDGE_LOOP('',(#359,#360,#361,#362)) ;
#382=EDGE_LOOP('',(#383,#384,#385,#386)) ;
#401=EDGE_LOOP('',(#402,#403,#404,#405)) ;
#413=EDGE_LOOP('',(#414,#415,#416)) ;
#456=EDGE_LOOP('',(#457,#458,#459,#460,#461,#462,#463,#464,#465,#466,#467,#468)) ;
#488=EDGE_LOOP('',(#489,#490,#491)) ;
#504=EDGE_LOOP('',(#505,#506,#507,#508)) ;
#516=EDGE_LOOP('',(#517,#518,#519,#520)) ;
#540=EDGE_LOOP('',(#541,#542,#543)) ;
#551=EDGE_LOOP('',(#552,#553,#554,#555)) ;
#558=EDGE_LOOP('',(#559,#560,#561,#562)) ;
#82=FACE_OUTER_BOUND('',#78,.T.) ;
#122=FACE_OUTER_BOUND('',#117,.T.) ;
#153=FACE_OUTER_BOUND('',#148,.T.) ;
#169=FACE_OUTER_BOUND('',#165,.T.) ;
#186=FACE_OUTER_BOUND('',#181,.T.) ;
#231=FACE_OUTER_BOUND('',#226,.T.) ;
#238=FACE_OUTER_BOUND('',#233,.T.) ;
#244=FACE_OUTER_BOUND('',#240,.T.) ;
#276=FACE_OUTER_BOUND('',#272,.T.) ;
#308=FACE_OUTER_BOUND('',#304,.T.) ;
#339=FACE_OUTER_BOUND('',#334,.T.) ;
#363=FACE_OUTER_BOUND('',#358,.T.) ;
#387=FACE_OUTER_BOUND('',#382,.T.) ;
#406=FACE_OUTER_BOUND('',#401,.T.) ;
#417=FACE_OUTER_BOUND('',#413,.T.) ;
#492=FACE_OUTER_BOUND('',#488,.T.) ;
#509=FACE_OUTER_BOUND('',#504,.T.) ;
#521=FACE_OUTER_BOUND('',#516,.T.) ;
#544=FACE_OUTER_BOUND('',#540,.T.) ;
#556=FACE_OUTER_BOUND('',#551,.T.) ;
#563=FACE_OUTER_BOUND('',#558,.T.) ;
#578=GEOMETRIC_SET('NONE',(#576,#588)) ;
#577=GEOMETRICALLY_BOUNDED_SURFACE_SHAPE_REPRESENTATION('NONE',(#578),#46) ;
#45=UNCERTAINTY_MEASURE_WITH_UNIT(LENGTH_MEASURE(0.005),#41,'distance_accuracy_value','CONFUSED CURVE UNCERTAINTY') ;
#60=LINE('Line',#57,#59) ;
#76=LINE('Line',#73,#75) ;
#92=LINE('Line',#89,#91) ;
#101=LINE('Line',#98,#100) ;
#108=LINE('Line',#105,#107) ;
#115=LINE('Line',#112,#114) ;
#132=LINE('Line',#129,#131) ;
#139=LINE('Line',#136,#138) ;
#146=LINE('Line',#143,#145) ;
#163=LINE('Line',#160,#162) ;
#179=LINE('Line',#176,#178) ;
#214=LINE('Line',#211,#213) ;
#224=LINE('Line',#221,#223) ;
#254=LINE('Line',#251,#253) ;
#263=LINE('Line',#260,#262) ;
#270=LINE('Line',#267,#269) ;
#286=LINE('Line',#283,#285) ;
#295=LINE('Line',#292,#294) ;
#302=LINE('Line',#299,#301) ;
#318=LINE('Line',#315,#317) ;
#325=LINE('Line',#322,#324) ;
#332=LINE('Line',#329,#331) ;
#344=LINE('Line',#341,#343) ;
#351=LINE('Line',#348,#350) ;
#356=LINE('Line',#353,#355) ;
#373=LINE('Line',#370,#372) ;
#380=LINE('Line',#377,#379) ;
#392=LINE('Line',#389,#391) ;
#399=LINE('Line',#396,#398) ;
#421=LINE('Line',#418,#420) ;
#428=LINE('Line',#425,#427) ;
#435=LINE('Line',#432,#434) ;
#440=LINE('Line',#437,#439) ;
#447=LINE('Line',#444,#446) ;
#454=LINE('Line',#451,#453) ;
#479=LINE('Line',#476,#478) ;
#486=LINE('Line',#483,#485) ;
#502=LINE('Line',#499,#501) ;
#531=LINE('Line',#528,#530) ;
#538=LINE('Line',#535,#537) ;
#549=LINE('Line',#546,#548) ;
#571=LINE('Line',#568,#570) ;
#583=LINE('Line',#580,#582) ;
#2=MECHANICAL_CONTEXT(' ',#1,'mechanical') ;
#24=PERSONAL_ADDRESS(' ',' ',' ',' ',' ',' ',' ',' ',' ',' ',' ',' ',(#22),' ') ;
#88=PLANE('Plane',#87) ;
#128=PLANE('Plane',#127) ;
#159=PLANE('Plane',#158) ;
#175=PLANE('Plane',#174) ;
#250=PLANE('Plane',#249) ;
#282=PLANE('Plane',#281) ;
#314=PLANE('Plane',#313) ;
#369=PLANE('Plane',#368) ;
#412=PLANE('Plane',#411) ;
#475=PLANE('Plane',#474) ;
#498=PLANE('Plane',#497) ;
#515=PLANE('Plane',#514) ;
#527=PLANE('Plane',#526) ;
#43=PLANE_ANGLE_MEASURE_WITH_UNIT(PLANE_ANGLE_MEASURE(0.0174532925199),#42) ;
#7=PRODUCT_CATEGORY('part',$) ;
#9=PRODUCT_CATEGORY_RELATIONSHIP(' ',' ',#7,#8) ;
#6=PRODUCT_DEFINITION_FORMATION_WITH_SPECIFIED_SOURCE('',' ',#5,.NOT_KNOWN.) ;
#8=PRODUCT_RELATED_PRODUCT_CATEGORY('detail',$,(#5)) ;
#50=SHAPE_DEFINITION_REPRESENTATION(#40,#49) ;
#574=TRIMMED_CURVE('',#571,(#572),(#573),.T.,.CARTESIAN.) ;
#586=TRIMMED_CURVE('',#583,(#584),(#585),.T.,.CARTESIAN.) ;
#62=VERTEX_POINT('',#61) ;
#64=VERTEX_POINT('',#63) ;
#71=VERTEX_POINT('',#70) ;
#94=VERTEX_POINT('',#93) ;
#96=VERTEX_POINT('',#95) ;
#103=VERTEX_POINT('',#102) ;
#110=VERTEX_POINT('',#109) ;
#134=VERTEX_POINT('',#133) ;
#141=VERTEX_POINT('',#140) ;
#192=VERTEX_POINT('',#191) ;
#194=VERTEX_POINT('',#193) ;
#256=VERTEX_POINT('',#255) ;
#258=VERTEX_POINT('',#257) ;
#265=VERTEX_POINT('',#264) ;
#288=VERTEX_POINT('',#287) ;
#290=VERTEX_POINT('',#289) ;
#297=VERTEX_POINT('',#296) ;
#320=VERTEX_POINT('',#319) ;
#327=VERTEX_POINT('',#326) ;
#346=VERTEX_POINT('',#345) ;
#375=VERTEX_POINT('',#374) ;
#394=VERTEX_POINT('',#393) ;
#423=VERTEX_POINT('',#422) ;
#430=VERTEX_POINT('',#429) ;
#442=VERTEX_POINT('',#441) ;
#449=VERTEX_POINT('',#448) ;
#481=VERTEX_POINT('',#480) ;
#533=VERTEX_POINT('',#532) ;
#41=(LENGTH_UNIT()NAMED_UNIT(*)SI_UNIT(.MILLI.,.METRE.)) ;
#42=(NAMED_UNIT(*)PLANE_ANGLE_UNIT()SI_UNIT($,.RADIAN.)) ;
#44=(NAMED_UNIT(*)SI_UNIT($,.STERADIAN.)SOLID_ANGLE_UNIT()) ;
#46=(GEOMETRIC_REPRESENTATION_CONTEXT(3)GLOBAL_UNCERTAINTY_ASSIGNED_CONTEXT((#45))GLOBAL_UNIT_ASSIGNED_CONTEXT((#41,#42,#44))REPRESENTATION_CONTEXT(' ',' ')) ;
ENDSEC;
END-ISO-10303-21;
