ISO-10303-21;
HEADER;
FILE_DESCRIPTION (( 'STEP AP214' ),
    '1' );
FILE_NAME ('ROV_USI_003_A_Axe roulis.STEP',
    '2021-10-13T13:29:59',
    ( '' ),
    ( '' ),
    'SwSTEP 2.0',
    'SolidWorks 2016',
    '' );
FILE_SCHEMA (( 'AUTOMOTIVE_DESIGN' ));
ENDSEC;

DATA;
#1 = CIRCLE ( 'NONE', #263, 3.500000000000000000 ) ;
#2 = EDGE_CURVE ( 'NONE', #272, #173, #130, .T. ) ;
#3 =( NAMED_UNIT ( * ) PLANE_ANGLE_UNIT ( ) SI_UNIT ( $, .RADIAN. ) );
#4 = ORIENTED_EDGE ( 'NONE', *, *, #100, .T. ) ;
#5 = ORIENTED_EDGE ( 'NONE', *, *, #260, .F. ) ;
#6 = CIRCLE ( 'NONE', #109, 2.500000000000000000 ) ;
#7 = FILL_AREA_STYLE_COLOUR ( '', #41 ) ;
#8 = FACE_OUTER_BOUND ( 'NONE', #139, .T. ) ;
#9 = VERTEX_POINT ( 'NONE', #174 ) ;
#10 = DIRECTION ( 'NONE',  ( -0.0000000000000000000, -0.0000000000000000000, 1.000000000000000000 ) ) ;
#11 = DIRECTION ( 'NONE',  ( 1.000000000000000000, 0.0000000000000000000, 0.0000000000000000000 ) ) ;
#12 = APPLICATION_PROTOCOL_DEFINITION ( 'draft international standard', 'automotive_design', 1998, #276 ) ;
#13 = EDGE_CURVE ( 'NONE', #9, #28, #200, .T. ) ;
#14 = LINE ( 'NONE', #210, #264 ) ;
#15 = ORIENTED_EDGE ( 'NONE', *, *, #55, .T. ) ;
#16 = DIRECTION ( 'NONE',  ( 1.000000000000000000, 0.0000000000000000000, 0.0000000000000000000 ) ) ;
#17 = CARTESIAN_POINT ( 'NONE',  ( -2.500000000000000000, 3.061616997868383100E-016, -75.00000000000001400 ) ) ;
#18 = LINE ( 'NONE', #193, #185 ) ;
#19 = DIRECTION ( 'NONE',  ( -1.000000000000000000, 0.0000000000000000000, 0.0000000000000000000 ) ) ;
#20 = EDGE_LOOP ( 'NONE', ( #201, #161 ) ) ;
#21 = CARTESIAN_POINT ( 'NONE',  ( 0.0000000000000000000, 0.0000000000000000000, -75.00000000000001400 ) ) ;
#22 = CARTESIAN_POINT ( 'NONE',  ( 0.0000000000000000000, 0.0000000000000000000, -75.00000000000001400 ) ) ;
#23 = EDGE_CURVE ( 'NONE', #289, #245, #122, .T. ) ;
#24 =( LENGTH_UNIT ( ) NAMED_UNIT ( * ) SI_UNIT ( .MILLI., .METRE. ) );
#25 = DIRECTION ( 'NONE',  ( 1.000000000000000000, 0.0000000000000000000, 0.0000000000000000000 ) ) ;
#26 = CIRCLE ( 'NONE', #36, 3.500000000000000000 ) ;
#27 = AXIS2_PLACEMENT_3D ( 'NONE', #216, #241, #115 ) ;
#28 = VERTEX_POINT ( 'NONE', #127 ) ;
#29 = ADVANCED_FACE ( 'NONE', ( #300, #247 ), #149, .T. ) ;
#30 = FILL_AREA_STYLE ('',( #7 ) ) ;
#31 = FACE_OUTER_BOUND ( 'NONE', #156, .T. ) ;
#32 = ORIENTED_EDGE ( 'NONE', *, *, #269, .F. ) ;
#33 = UNCERTAINTY_MEASURE_WITH_UNIT (LENGTH_MEASURE( 1.000000000000000100E-005 ), #51, 'distance_accuracy_value', 'NONE');
#34 = DIRECTION ( 'NONE',  ( 0.0000000000000000000, 0.0000000000000000000, 1.000000000000000000 ) ) ;
#35 = EDGE_LOOP ( 'NONE', ( #101, #97, #218, #219 ) ) ;
#36 = AXIS2_PLACEMENT_3D ( 'NONE', #278, #231, #129 ) ;
#37 = CARTESIAN_POINT ( 'NONE',  ( -2.500000000000000000, 0.0000000000000000000, 75.00000000000001400 ) ) ;
#38 = FACE_OUTER_BOUND ( 'NONE', #117, .T. ) ;
#39 = EDGE_CURVE ( 'NONE', #191, #190, #26, .T. ) ;
#40 = CARTESIAN_POINT ( 'NONE',  ( 0.0000000000000000000, 0.0000000000000000000, 75.00000000000001400 ) ) ;
#41 = COLOUR_RGB ( '',0.8980392156862745400, 0.9176470588235293700, 0.9294117647058823800 ) ;
#42 = PRODUCT ( 'ROV_USI_003_A_Axe roulis', 'ROV_USI_003_A_Axe roulis', '', ( #176 ) ) ;
#43 = ORIENTED_EDGE ( 'NONE', *, *, #172, .T. ) ;
#44 = ORIENTED_EDGE ( 'NONE', *, *, #209, .T. ) ;
#45 = DIRECTION ( 'NONE',  ( -0.0000000000000000000, -0.0000000000000000000, -1.000000000000000000 ) ) ;
#46 = EDGE_CURVE ( 'NONE', #104, #78, #72, .T. ) ;
#47 = CARTESIAN_POINT ( 'NONE',  ( 0.0000000000000000000, 0.0000000000000000000, -50.00000000000000000 ) ) ;
#48 = SURFACE_STYLE_FILL_AREA ( #186 ) ;
#49 = EDGE_LOOP ( 'NONE', ( #167, #230 ) ) ;
#50 = AXIS2_PLACEMENT_3D ( 'NONE', #56, #108, #16 ) ;
#51 =( LENGTH_UNIT ( ) NAMED_UNIT ( * ) SI_UNIT ( .MILLI., .METRE. ) );
#52 = DIRECTION ( 'NONE',  ( 0.0000000000000000000, 0.0000000000000000000, 1.000000000000000000 ) ) ;
#53 = EDGE_CURVE ( 'NONE', #272, #226, #76, .T. ) ;
#54 = CIRCLE ( 'NONE', #233, 3.500000000000000000 ) ;
#55 = EDGE_CURVE ( 'NONE', #245, #289, #196, .T. ) ;
#56 = CARTESIAN_POINT ( 'NONE',  ( 0.0000000000000000000, 0.0000000000000000000, 75.00000000000001400 ) ) ;
#57 = CYLINDRICAL_SURFACE ( 'NONE', #136, 2.500000000000000000 ) ;
#58 = ORIENTED_EDGE ( 'NONE', *, *, #269, .T. ) ;
#59 = DIRECTION ( 'NONE',  ( 1.000000000000000000, 0.0000000000000000000, 0.0000000000000000000 ) ) ;
#60 = CARTESIAN_POINT ( 'NONE',  ( 3.500000000000000000, 4.286263797015736600E-016, 50.00000000000000000 ) ) ;
#61 = DIRECTION ( 'NONE',  ( -0.0000000000000000000, -0.0000000000000000000, 1.000000000000000000 ) ) ;
#62 = PRODUCT_DEFINITION ( 'UNKNOWN', '', #270, #90 ) ;
#63 = DIRECTION ( 'NONE',  ( -1.000000000000000000, 0.0000000000000000000, 0.0000000000000000000 ) ) ;
#64 = ORIENTED_EDGE ( 'NONE', *, *, #260, .T. ) ;
#65 = DIRECTION ( 'NONE',  ( 1.000000000000000000, 0.0000000000000000000, 0.0000000000000000000 ) ) ;
#66 = VECTOR ( 'NONE', #70, 1000.000000000000000 ) ;
#67 = CARTESIAN_POINT ( 'NONE',  ( -2.500000000000000000, 0.0000000000000000000, 75.00000000000001400 ) ) ;
#68 = LINE ( 'NONE', #37, #155 ) ;
#69 = EDGE_LOOP ( 'NONE', ( #293, #91 ) ) ;
#70 = DIRECTION ( 'NONE',  ( -0.0000000000000000000, -0.0000000000000000000, -1.000000000000000000 ) ) ;
#71 = AXIS2_PLACEMENT_3D ( 'NONE', #214, #110, #284 ) ;
#72 = CIRCLE ( 'NONE', #273, 3.500000000000000000 ) ;
#73 =( GEOMETRIC_REPRESENTATION_CONTEXT ( 3 ) GLOBAL_UNCERTAINTY_ASSIGNED_CONTEXT ( ( #33 ) ) GLOBAL_UNIT_ASSIGNED_CONTEXT ( ( #51, #229, #79 ) ) REPRESENTATION_CONTEXT ( 'NONE', 'WORKASPACE' ) );
#74 = PRODUCT_DEFINITION_SHAPE ( 'NONE', 'NONE',  #62 ) ;
#75 = PLANE ( 'NONE',  #175 ) ;
#76 = CIRCLE ( 'NONE', #77, 2.500000000000000000 ) ;
#77 = AXIS2_PLACEMENT_3D ( 'NONE', #208, #283, #179 ) ;
#78 = VERTEX_POINT ( 'NONE', #60 ) ;
#79 =( NAMED_UNIT ( * ) SI_UNIT ( $, .STERADIAN. ) SOLID_ANGLE_UNIT ( ) );
#80 = CIRCLE ( 'NONE', #198, 2.500000000000000000 ) ;
#81 = DIRECTION ( 'NONE',  ( 0.0000000000000000000, 0.0000000000000000000, 1.000000000000000000 ) ) ;
#82 = APPLICATION_CONTEXT ( 'automotive_design' ) ;
#83 = EDGE_CURVE ( 'NONE', #226, #125, #116, .T. ) ;
#84 = DIRECTION ( 'NONE',  ( -0.0000000000000000000, -0.0000000000000000000, -1.000000000000000000 ) ) ;
#85 = ORIENTED_EDGE ( 'NONE', *, *, #53, .F. ) ;
#86 = FACE_OUTER_BOUND ( 'NONE', #49, .T. ) ;
#87 = EDGE_LOOP ( 'NONE', ( #15, #145 ) ) ;
#88 = CARTESIAN_POINT ( 'NONE',  ( -2.500000000000000000, 3.061616997868383100E-016, -50.00000000000000000 ) ) ;
#89 = AXIS2_PLACEMENT_3D ( 'NONE', #252, #34, #146 ) ;
#90 = PRODUCT_DEFINITION_CONTEXT ( 'detailed design', #82, 'design' ) ;
#91 = ORIENTED_EDGE ( 'NONE', *, *, #256, .T. ) ;
#92 = DIRECTION ( 'NONE',  ( 0.0000000000000000000, 0.0000000000000000000, 1.000000000000000000 ) ) ;
#93 = AXIS2_PLACEMENT_3D ( 'NONE', #299, #261, #63 ) ;
#94 = FILL_AREA_STYLE_COLOUR ( '', #180 ) ;
#95 = CARTESIAN_POINT ( 'NONE',  ( 0.0000000000000000000, 0.0000000000000000000, 75.00000000000001400 ) ) ;
#96 = CARTESIAN_POINT ( 'NONE',  ( 3.500000000000000000, 4.286263797015736600E-016, -50.00000000000000000 ) ) ;
#97 = ORIENTED_EDGE ( 'NONE', *, *, #83, .T. ) ;
#98 = CARTESIAN_POINT ( 'NONE',  ( 0.0000000000000000000, 0.0000000000000000000, 50.00000000000000000 ) ) ;
#99 = CARTESIAN_POINT ( 'NONE',  ( 0.0000000000000000000, 0.0000000000000000000, 0.0000000000000000000 ) ) ;
#100 = EDGE_CURVE ( 'NONE', #289, #28, #14, .T. ) ;
#101 = ORIENTED_EDGE ( 'NONE', *, *, #53, .T. ) ;
#102 = FACE_OUTER_BOUND ( 'NONE', #35, .T. ) ;
#103 = DIRECTION ( 'NONE',  ( 0.0000000000000000000, 0.0000000000000000000, 1.000000000000000000 ) ) ;
#104 = VERTEX_POINT ( 'NONE', #157 ) ;
#105 = MECHANICAL_DESIGN_GEOMETRIC_PRESENTATION_REPRESENTATION (  '', ( #288 ), #120 ) ;
#106 = SURFACE_SIDE_STYLE ('',( #199 ) ) ;
#107 = SURFACE_STYLE_USAGE ( .BOTH. , #106 ) ;
#108 = DIRECTION ( 'NONE',  ( 0.0000000000000000000, 0.0000000000000000000, 1.000000000000000000 ) ) ;
#109 = AXIS2_PLACEMENT_3D ( 'NONE', #134, #61, #239 ) ;
#110 = DIRECTION ( 'NONE',  ( 0.0000000000000000000, 0.0000000000000000000, 1.000000000000000000 ) ) ;
#111 = FACE_OUTER_BOUND ( 'NONE', #265, .T. ) ;
#112 = ORIENTED_EDGE ( 'NONE', *, *, #172, .F. ) ;
#113 = ADVANCED_FACE ( 'NONE', ( #111 ), #217, .T. ) ;
#114 = EDGE_CURVE ( 'NONE', #245, #9, #68, .T. ) ;
#115 = DIRECTION ( 'NONE',  ( 1.000000000000000000, 0.0000000000000000000, -0.0000000000000000000 ) ) ;
#116 = LINE ( 'NONE', #17, #166 ) ;
#117 = EDGE_LOOP ( 'NONE', ( #85, #296 ) ) ;
#118 = CARTESIAN_POINT ( 'NONE',  ( 0.0000000000000000000, 0.0000000000000000000, -50.00000000000000000 ) ) ;
#119 = EDGE_CURVE ( 'NONE', #173, #125, #6, .T. ) ;
#120 =( GEOMETRIC_REPRESENTATION_CONTEXT ( 3 ) GLOBAL_UNCERTAINTY_ASSIGNED_CONTEXT ( ( #121 ) ) GLOBAL_UNIT_ASSIGNED_CONTEXT ( ( #24, #3, #164 ) ) REPRESENTATION_CONTEXT ( 'NONE', 'WORKASPACE' ) );
#121 = UNCERTAINTY_MEASURE_WITH_UNIT (LENGTH_MEASURE( 1.000000000000000100E-005 ), #24, 'distance_accuracy_value', 'NONE');
#122 = CIRCLE ( 'NONE', #177, 2.500000000000000000 ) ;
#123 = PRESENTATION_LAYER_ASSIGNMENT (  '', '', ( #277 ) ) ;
#124 = VECTOR ( 'NONE', #10, 1000.000000000000000 ) ;
#125 = VERTEX_POINT ( 'NONE', #88 ) ;
#126 = FACE_OUTER_BOUND ( 'NONE', #251, .T. ) ;
#127 = CARTESIAN_POINT ( 'NONE',  ( 2.500000000000000000, 3.061616997868383100E-016, 50.00000000000000000 ) ) ;
#128 = PRESENTATION_LAYER_ASSIGNMENT (  '', '', ( #288 ) ) ;
#129 = DIRECTION ( 'NONE',  ( 1.000000000000000000, 0.0000000000000000000, 0.0000000000000000000 ) ) ;
#130 = LINE ( 'NONE', #234, #124 ) ;
#131 = ORIENTED_EDGE ( 'NONE', *, *, #13, .F. ) ;
#132 = DIRECTION ( 'NONE',  ( -0.0000000000000000000, -0.0000000000000000000, -1.000000000000000000 ) ) ;
#133 = CARTESIAN_POINT ( 'NONE',  ( 0.0000000000000000000, 0.0000000000000000000, -75.00000000000001400 ) ) ;
#134 = CARTESIAN_POINT ( 'NONE',  ( 0.0000000000000000000, 0.0000000000000000000, -50.00000000000000000 ) ) ;
#135 = CYLINDRICAL_SURFACE ( 'NONE', #220, 2.500000000000000000 ) ;
#136 = AXIS2_PLACEMENT_3D ( 'NONE', #133, #153, #182 ) ;
#137 = ADVANCED_FACE ( 'NONE', ( #38 ), #158, .T. ) ;
#138 = DIRECTION ( 'NONE',  ( -0.0000000000000000000, -0.0000000000000000000, -1.000000000000000000 ) ) ;
#139 = EDGE_LOOP ( 'NONE', ( #271, #181, #147, #268 ) ) ;
#140 = AXIS2_PLACEMENT_3D ( 'NONE', #40, #183, #287 ) ;
#141 = DIRECTION ( 'NONE',  ( -0.0000000000000000000, -0.0000000000000000000, 1.000000000000000000 ) ) ;
#142 = DIRECTION ( 'NONE',  ( -0.0000000000000000000, -0.0000000000000000000, 1.000000000000000000 ) ) ;
#143 = CARTESIAN_POINT ( 'NONE',  ( 2.500000000000000000, 0.0000000000000000000, -75.00000000000001400 ) ) ;
#144 = CIRCLE ( 'NONE', #159, 2.500000000000000000 ) ;
#145 = ORIENTED_EDGE ( 'NONE', *, *, #23, .T. ) ;
#146 = DIRECTION ( 'NONE',  ( 1.000000000000000000, 0.0000000000000000000, -0.0000000000000000000 ) ) ;
#147 = ORIENTED_EDGE ( 'NONE', *, *, #114, .T. ) ;
#148 = CARTESIAN_POINT ( 'NONE',  ( 0.0000000000000000000, 0.0000000000000000000, 50.00000000000000000 ) ) ;
#149 = PLANE ( 'NONE',  #89 ) ;
#150 = ORIENTED_EDGE ( 'NONE', *, *, #23, .F. ) ;
#151 = CARTESIAN_POINT ( 'NONE',  ( -3.500000000000000000, 0.0000000000000000000, -50.00000000000000000 ) ) ;
#152 = CARTESIAN_POINT ( 'NONE',  ( 0.0000000000000000000, 0.0000000000000000000, 50.00000000000000000 ) ) ;
#153 = DIRECTION ( 'NONE',  ( -0.0000000000000000000, -0.0000000000000000000, 1.000000000000000000 ) ) ;
#154 = LINE ( 'NONE', #244, #66 ) ;
#155 = VECTOR ( 'NONE', #84, 1000.000000000000000 ) ;
#156 = EDGE_LOOP ( 'NONE', ( #207, #58, #221, #5 ) ) ;
#157 = CARTESIAN_POINT ( 'NONE',  ( -3.500000000000000000, 0.0000000000000000000, 50.00000000000000000 ) ) ;
#158 = PLANE ( 'NONE',  #292 ) ;
#159 = AXIS2_PLACEMENT_3D ( 'NONE', #118, #246, #267 ) ;
#160 = AXIS2_PLACEMENT_3D ( 'NONE', #148, #103, #297 ) ;
#161 = ORIENTED_EDGE ( 'NONE', *, *, #243, .T. ) ;
#162 = CARTESIAN_POINT ( 'NONE',  ( 0.0000000000000000000, 0.0000000000000000000, -50.00000000000000000 ) ) ;
#163 = SURFACE_SIDE_STYLE ('',( #48 ) ) ;
#164 =( NAMED_UNIT ( * ) SI_UNIT ( $, .STERADIAN. ) SOLID_ANGLE_UNIT ( ) );
#165 = ADVANCED_FACE ( 'NONE', ( #31 ), #258, .T. ) ;
#166 = VECTOR ( 'NONE', #184, 1000.000000000000000 ) ;
#167 = ORIENTED_EDGE ( 'NONE', *, *, #227, .F. ) ;
#168 =( GEOMETRIC_REPRESENTATION_CONTEXT ( 3 ) GLOBAL_UNCERTAINTY_ASSIGNED_CONTEXT ( ( #211 ) ) GLOBAL_UNIT_ASSIGNED_CONTEXT ( ( #248, #249, #223 ) ) REPRESENTATION_CONTEXT ( 'NONE', 'WORKASPACE' ) );
#169 = CARTESIAN_POINT ( 'NONE',  ( -2.500000000000000000, 3.061616997868383100E-016, -75.00000000000001400 ) ) ;
#170 = CARTESIAN_POINT ( 'NONE',  ( 2.500000000000000000, 3.061616997868383100E-016, 75.00000000000001400 ) ) ;
#171 = ADVANCED_FACE ( 'NONE', ( #8 ), #255, .T. ) ;
#172 = EDGE_CURVE ( 'NONE', #28, #9, #262, .T. ) ;
#173 = VERTEX_POINT ( 'NONE', #257 ) ;
#174 = CARTESIAN_POINT ( 'NONE',  ( -2.500000000000000000, 0.0000000000000000000, 50.00000000000000000 ) ) ;
#175 = AXIS2_PLACEMENT_3D ( 'NONE', #47, #224, #295 ) ;
#176 = PRODUCT_CONTEXT ( 'NONE', #276, 'mechanical' ) ;
#177 = AXIS2_PLACEMENT_3D ( 'NONE', #275, #52, #204 ) ;
#178 = DIRECTION ( 'NONE',  ( -0.0000000000000000000, -0.0000000000000000000, -1.000000000000000000 ) ) ;
#179 = DIRECTION ( 'NONE',  ( 1.000000000000000000, 0.0000000000000000000, 0.0000000000000000000 ) ) ;
#180 = COLOUR_RGB ( '',0.8980392156862745400, 0.9176470588235293700, 0.9294117647058823800 ) ;
#181 = ORIENTED_EDGE ( 'NONE', *, *, #55, .F. ) ;
#182 = DIRECTION ( 'NONE',  ( 1.000000000000000000, 0.0000000000000000000, 0.0000000000000000000 ) ) ;
#183 = DIRECTION ( 'NONE',  ( -0.0000000000000000000, -0.0000000000000000000, -1.000000000000000000 ) ) ;
#184 = DIRECTION ( 'NONE',  ( -0.0000000000000000000, -0.0000000000000000000, 1.000000000000000000 ) ) ;
#185 = VECTOR ( 'NONE', #138, 1000.000000000000000 ) ;
#186 = FILL_AREA_STYLE ('',( #94 ) ) ;
#187 = DIRECTION ( 'NONE',  ( 1.000000000000000000, 0.0000000000000000000, 0.0000000000000000000 ) ) ;
#188 = SHAPE_DEFINITION_REPRESENTATION ( #74, #279 ) ;
#189 = ADVANCED_FACE ( 'NONE', ( #126 ), #57, .T. ) ;
#190 = VERTEX_POINT ( 'NONE', #151 ) ;
#191 = VERTEX_POINT ( 'NONE', #96 ) ;
#192 = SURFACE_STYLE_USAGE ( .BOTH. , #163 ) ;
#193 = CARTESIAN_POINT ( 'NONE',  ( -3.500000000000000000, 0.0000000000000000000, 50.00000000000000000 ) ) ;
#194 = DIRECTION ( 'NONE',  ( 0.0000000000000000000, 0.0000000000000000000, 1.000000000000000000 ) ) ;
#195 = MANIFOLD_SOLID_BREP ( 'Symétrie1', #281 ) ;
#196 = CIRCLE ( 'NONE', #50, 2.500000000000000000 ) ;
#197 = MECHANICAL_DESIGN_GEOMETRIC_PRESENTATION_REPRESENTATION (  '', ( #277 ), #73 ) ;
#198 = AXIS2_PLACEMENT_3D ( 'NONE', #22, #142, #25 ) ;
#199 = SURFACE_STYLE_FILL_AREA ( #30 ) ;
#200 = CIRCLE ( 'NONE', #160, 2.500000000000000000 ) ;
#201 = ORIENTED_EDGE ( 'NONE', *, *, #46, .T. ) ;
#202 = FACE_OUTER_BOUND ( 'NONE', #87, .T. ) ;
#203 = CARTESIAN_POINT ( 'NONE',  ( 0.0000000000000000000, 0.0000000000000000000, 50.00000000000000000 ) ) ;
#204 = DIRECTION ( 'NONE',  ( 1.000000000000000000, 0.0000000000000000000, 0.0000000000000000000 ) ) ;
#205 = FACE_BOUND ( 'NONE', #69, .T. ) ;
#206 = EDGE_LOOP ( 'NONE', ( #131, #112 ) ) ;
#207 = ORIENTED_EDGE ( 'NONE', *, *, #243, .F. ) ;
#208 = CARTESIAN_POINT ( 'NONE',  ( 0.0000000000000000000, 0.0000000000000000000, -75.00000000000001400 ) ) ;
#209 = EDGE_CURVE ( 'NONE', #226, #272, #80, .T. ) ;
#210 = CARTESIAN_POINT ( 'NONE',  ( 2.500000000000000000, 3.061616997868383100E-016, 75.00000000000001400 ) ) ;
#211 = UNCERTAINTY_MEASURE_WITH_UNIT (LENGTH_MEASURE( 1.000000000000000100E-005 ), #248, 'distance_accuracy_value', 'NONE');
#212 = DIRECTION ( 'NONE',  ( -1.000000000000000000, 0.0000000000000000000, 0.0000000000000000000 ) ) ;
#213 = ORIENTED_EDGE ( 'NONE', *, *, #227, .T. ) ;
#214 = CARTESIAN_POINT ( 'NONE',  ( 0.0000000000000000000, 0.0000000000000000000, 50.00000000000000000 ) ) ;
#215 = AXIS2_PLACEMENT_3D ( 'NONE', #152, #178, #212 ) ;
#216 = CARTESIAN_POINT ( 'NONE',  ( 0.0000000000000000000, 0.0000000000000000000, 75.00000000000001400 ) ) ;
#217 = CYLINDRICAL_SURFACE ( 'NONE', #93, 3.500000000000000000 ) ;
#218 = ORIENTED_EDGE ( 'NONE', *, *, #119, .F. ) ;
#219 = ORIENTED_EDGE ( 'NONE', *, *, #2, .F. ) ;
#220 = AXIS2_PLACEMENT_3D ( 'NONE', #21, #141, #187 ) ;
#221 = ORIENTED_EDGE ( 'NONE', *, *, #39, .T. ) ;
#222 = DIRECTION ( 'NONE',  ( 1.000000000000000000, 0.0000000000000000000, 0.0000000000000000000 ) ) ;
#223 =( NAMED_UNIT ( * ) SI_UNIT ( $, .STERADIAN. ) SOLID_ANGLE_UNIT ( ) );
#224 = DIRECTION ( 'NONE',  ( 0.0000000000000000000, 0.0000000000000000000, 1.000000000000000000 ) ) ;
#225 = FACE_OUTER_BOUND ( 'NONE', #286, .T. ) ;
#226 = VERTEX_POINT ( 'NONE', #169 ) ;
#227 = EDGE_CURVE ( 'NONE', #190, #191, #54, .T. ) ;
#228 = CYLINDRICAL_SURFACE ( 'NONE', #290, 2.500000000000000000 ) ;
#229 =( NAMED_UNIT ( * ) PLANE_ANGLE_UNIT ( ) SI_UNIT ( $, .RADIAN. ) );
#230 = ORIENTED_EDGE ( 'NONE', *, *, #39, .F. ) ;
#231 = DIRECTION ( 'NONE',  ( 0.0000000000000000000, 0.0000000000000000000, 1.000000000000000000 ) ) ;
#232 = ORIENTED_EDGE ( 'NONE', *, *, #114, .F. ) ;
#233 = AXIS2_PLACEMENT_3D ( 'NONE', #162, #194, #65 ) ;
#234 = CARTESIAN_POINT ( 'NONE',  ( 2.500000000000000000, 0.0000000000000000000, -75.00000000000001400 ) ) ;
#235 = DIRECTION ( 'NONE',  ( 1.000000000000000000, 0.0000000000000000000, 0.0000000000000000000 ) ) ;
#236 = CARTESIAN_POINT ( 'NONE',  ( 0.0000000000000000000, 0.0000000000000000000, -75.00000000000001400 ) ) ;
#237 = ORIENTED_EDGE ( 'NONE', *, *, #46, .F. ) ;
#238 = ORIENTED_EDGE ( 'NONE', *, *, #256, .F. ) ;
#239 = DIRECTION ( 'NONE',  ( 1.000000000000000000, 0.0000000000000000000, 0.0000000000000000000 ) ) ;
#240 = ADVANCED_FACE ( 'NONE', ( #102 ), #135, .T. ) ;
#241 = DIRECTION ( 'NONE',  ( 0.0000000000000000000, 0.0000000000000000000, 1.000000000000000000 ) ) ;
#242 = PLANE ( 'NONE',  #27 ) ;
#243 = EDGE_CURVE ( 'NONE', #78, #104, #1, .T. ) ;
#244 = CARTESIAN_POINT ( 'NONE',  ( 3.500000000000000000, 4.286263797015736600E-016, 50.00000000000000000 ) ) ;
#245 = VERTEX_POINT ( 'NONE', #67 ) ;
#246 = DIRECTION ( 'NONE',  ( -0.0000000000000000000, -0.0000000000000000000, 1.000000000000000000 ) ) ;
#247 = FACE_OUTER_BOUND ( 'NONE', #20, .T. ) ;
#248 =( LENGTH_UNIT ( ) NAMED_UNIT ( * ) SI_UNIT ( .MILLI., .METRE. ) );
#249 =( NAMED_UNIT ( * ) PLANE_ANGLE_UNIT ( ) SI_UNIT ( $, .RADIAN. ) );
#250 = ORIENTED_EDGE ( 'NONE', *, *, #83, .F. ) ;
#251 = EDGE_LOOP ( 'NONE', ( #250, #44, #259, #238 ) ) ;
#252 = CARTESIAN_POINT ( 'NONE',  ( 0.0000000000000000000, 0.0000000000000000000, 50.00000000000000000 ) ) ;
#253 = DIRECTION ( 'NONE',  ( 0.0000000000000000000, 0.0000000000000000000, 1.000000000000000000 ) ) ;
#254 = ADVANCED_FACE ( 'NONE', ( #202 ), #242, .T. ) ;
#255 = CYLINDRICAL_SURFACE ( 'NONE', #140, 2.500000000000000000 ) ;
#256 = EDGE_CURVE ( 'NONE', #125, #173, #144, .T. ) ;
#257 = CARTESIAN_POINT ( 'NONE',  ( 2.500000000000000000, 0.0000000000000000000, -50.00000000000000000 ) ) ;
#258 = CYLINDRICAL_SURFACE ( 'NONE', #215, 3.500000000000000000 ) ;
#259 = ORIENTED_EDGE ( 'NONE', *, *, #2, .T. ) ;
#260 = EDGE_CURVE ( 'NONE', #104, #190, #18, .T. ) ;
#261 = DIRECTION ( 'NONE',  ( -0.0000000000000000000, -0.0000000000000000000, -1.000000000000000000 ) ) ;
#262 = CIRCLE ( 'NONE', #71, 2.500000000000000000 ) ;
#263 = AXIS2_PLACEMENT_3D ( 'NONE', #98, #92, #222 ) ;
#264 = VECTOR ( 'NONE', #132, 1000.000000000000000 ) ;
#265 = EDGE_LOOP ( 'NONE', ( #32, #237, #64, #213 ) ) ;
#266 = ADVANCED_FACE ( 'NONE', ( #225 ), #228, .T. ) ;
#267 = DIRECTION ( 'NONE',  ( 1.000000000000000000, 0.0000000000000000000, 0.0000000000000000000 ) ) ;
#268 = ORIENTED_EDGE ( 'NONE', *, *, #13, .T. ) ;
#269 = EDGE_CURVE ( 'NONE', #78, #191, #154, .T. ) ;
#270 = PRODUCT_DEFINITION_FORMATION_WITH_SPECIFIED_SOURCE ( 'ANY', '', #42, .NOT_KNOWN. ) ;
#271 = ORIENTED_EDGE ( 'NONE', *, *, #100, .F. ) ;
#272 = VERTEX_POINT ( 'NONE', #143 ) ;
#273 = AXIS2_PLACEMENT_3D ( 'NONE', #203, #81, #59 ) ;
#274 = APPLICATION_PROTOCOL_DEFINITION ( 'draft international standard', 'automotive_design', 1998, #82 ) ;
#275 = CARTESIAN_POINT ( 'NONE',  ( 0.0000000000000000000, 0.0000000000000000000, 75.00000000000001400 ) ) ;
#276 = APPLICATION_CONTEXT ( 'automotive_design' ) ;
#277 = STYLED_ITEM ( 'NONE', ( #280 ), #279 ) ;
#278 = CARTESIAN_POINT ( 'NONE',  ( 0.0000000000000000000, 0.0000000000000000000, -50.00000000000000000 ) ) ;
#279 = ADVANCED_BREP_SHAPE_REPRESENTATION ( 'ROV_USI_003_A_Axe roulis', ( #195, #298 ), #168 ) ;
#280 = PRESENTATION_STYLE_ASSIGNMENT (( #107 ) ) ;
#281 = CLOSED_SHELL ( 'NONE', ( #240, #266, #165, #113, #29, #291, #171, #254, #189, #137 ) ) ;
#282 = DIRECTION ( 'NONE',  ( 0.0000000000000000000, 0.0000000000000000000, -1.000000000000000000 ) ) ;
#283 = DIRECTION ( 'NONE',  ( -0.0000000000000000000, -0.0000000000000000000, 1.000000000000000000 ) ) ;
#284 = DIRECTION ( 'NONE',  ( 1.000000000000000000, 0.0000000000000000000, 0.0000000000000000000 ) ) ;
#285 = PRESENTATION_STYLE_ASSIGNMENT (( #192 ) ) ;
#286 = EDGE_LOOP ( 'NONE', ( #150, #4, #43, #232 ) ) ;
#287 = DIRECTION ( 'NONE',  ( -1.000000000000000000, 0.0000000000000000000, 0.0000000000000000000 ) ) ;
#288 = STYLED_ITEM ( 'NONE', ( #285 ), #195 ) ;
#289 = VERTEX_POINT ( 'NONE', #170 ) ;
#290 = AXIS2_PLACEMENT_3D ( 'NONE', #95, #45, #19 ) ;
#291 = ADVANCED_FACE ( 'NONE', ( #205, #86 ), #75, .F. ) ;
#292 = AXIS2_PLACEMENT_3D ( 'NONE', #236, #282, #235 ) ;
#293 = ORIENTED_EDGE ( 'NONE', *, *, #119, .T. ) ;
#294 = PRODUCT_RELATED_PRODUCT_CATEGORY ( 'part', '', ( #42 ) ) ;
#295 = DIRECTION ( 'NONE',  ( 1.000000000000000000, 0.0000000000000000000, -0.0000000000000000000 ) ) ;
#296 = ORIENTED_EDGE ( 'NONE', *, *, #209, .F. ) ;
#297 = DIRECTION ( 'NONE',  ( 1.000000000000000000, 0.0000000000000000000, 0.0000000000000000000 ) ) ;
#298 = AXIS2_PLACEMENT_3D ( 'NONE', #99, #253, #11 ) ;
#299 = CARTESIAN_POINT ( 'NONE',  ( 0.0000000000000000000, 0.0000000000000000000, 50.00000000000000000 ) ) ;
#300 = FACE_BOUND ( 'NONE', #206, .T. ) ;
ENDSEC;
END-ISO-10303-21;
