ISO-10303-21;
HEADER;
/* Generated by software containing ST-Developer
 * from STEP Tools, Inc. (www.steptools.com) 
 */

FILE_DESCRIPTION(
/* description */ (''),
/* implementation_level */ '2;1');

FILE_NAME(
/* name */ 
'C:/Users/christian.bertain/Documents/Bertain/Maison/Luminaires/Plafon
nier salon/Corps principal.step',
/* time_stamp */ '2021-10-05T11:02:23+02:00',
/* author */ (''),
/* organization */ (''),
/* preprocessor_version */ 'ST-DEVELOPER v18.1',
/* originating_system */ 'Autodesk Translation Framework v10.10.0.1391',

/* authorisation */ '');

FILE_SCHEMA (('AUTOMOTIVE_DESIGN { 1 0 10303 214 3 1 1 }'));
ENDSEC;

DATA;
#10=MECHANICAL_DESIGN_GEOMETRIC_PRESENTATION_REPRESENTATION('',(#13),#140);
#11=SHAPE_REPRESENTATION_RELATIONSHIP('SRR','None',#147,#12);
#12=ADVANCED_BREP_SHAPE_REPRESENTATION('',(#14),#139);
#13=STYLED_ITEM('',(#156),#14);
#14=MANIFOLD_SOLID_BREP('Corps1',#73);
#15=FACE_BOUND('',#29,.T.);
#16=CYLINDRICAL_SURFACE('',#91,7.5);
#17=CYLINDRICAL_SURFACE('',#95,5.);
#18=PLANE('',#89);
#19=PLANE('',#93);
#20=FACE_OUTER_BOUND('',#25,.T.);
#21=FACE_OUTER_BOUND('',#26,.T.);
#22=FACE_OUTER_BOUND('',#27,.T.);
#23=FACE_OUTER_BOUND('',#28,.T.);
#24=FACE_OUTER_BOUND('',#30,.T.);
#25=EDGE_LOOP('',(#53,#54,#55));
#26=EDGE_LOOP('',(#56));
#27=EDGE_LOOP('',(#57,#58,#59,#60));
#28=EDGE_LOOP('',(#61));
#29=EDGE_LOOP('',(#62));
#30=EDGE_LOOP('',(#63,#64,#65,#66));
#31=LINE('',#124,#34);
#32=LINE('',#131,#35);
#33=LINE('',#136,#36);
#34=VECTOR('',#102,2.5);
#35=VECTOR('',#111,7.5);
#36=VECTOR('',#118,5.);
#37=CIRCLE('',#88,5.);
#38=CIRCLE('',#90,7.5);
#39=CIRCLE('',#92,7.5);
#40=CIRCLE('',#94,5.);
#41=VERTEX_POINT('',#121);
#42=VERTEX_POINT('',#123);
#43=VERTEX_POINT('',#126);
#44=VERTEX_POINT('',#129);
#45=VERTEX_POINT('',#133);
#46=EDGE_CURVE('',#41,#41,#37,.T.);
#47=EDGE_CURVE('',#41,#42,#31,.T.);
#48=EDGE_CURVE('',#43,#43,#38,.T.);
#49=EDGE_CURVE('',#44,#44,#39,.T.);
#50=EDGE_CURVE('',#44,#43,#32,.T.);
#51=EDGE_CURVE('',#45,#45,#40,.T.);
#52=EDGE_CURVE('',#45,#41,#33,.T.);
#53=ORIENTED_EDGE('',*,*,#46,.T.);
#54=ORIENTED_EDGE('',*,*,#47,.T.);
#55=ORIENTED_EDGE('',*,*,#47,.F.);
#56=ORIENTED_EDGE('',*,*,#48,.F.);
#57=ORIENTED_EDGE('',*,*,#49,.F.);
#58=ORIENTED_EDGE('',*,*,#50,.T.);
#59=ORIENTED_EDGE('',*,*,#48,.T.);
#60=ORIENTED_EDGE('',*,*,#50,.F.);
#61=ORIENTED_EDGE('',*,*,#49,.T.);
#62=ORIENTED_EDGE('',*,*,#51,.F.);
#63=ORIENTED_EDGE('',*,*,#51,.T.);
#64=ORIENTED_EDGE('',*,*,#52,.T.);
#65=ORIENTED_EDGE('',*,*,#46,.F.);
#66=ORIENTED_EDGE('',*,*,#52,.F.);
#67=CONICAL_SURFACE('',#87,2.5,1.0471975511966);
#68=ADVANCED_FACE('',(#20),#67,.F.);
#69=ADVANCED_FACE('',(#21),#18,.T.);
#70=ADVANCED_FACE('',(#22),#16,.T.);
#71=ADVANCED_FACE('',(#23,#15),#19,.T.);
#72=ADVANCED_FACE('',(#24),#17,.F.);
#73=CLOSED_SHELL('',(#68,#69,#70,#71,#72));
#74=DERIVED_UNIT_ELEMENT(#76,1.);
#75=DERIVED_UNIT_ELEMENT(#142,-3.);
#76=(
MASS_UNIT()
NAMED_UNIT(*)
SI_UNIT(.KILO.,.GRAM.)
);
#77=DERIVED_UNIT((#74,#75));
#78=MEASURE_REPRESENTATION_ITEM('density measure',
POSITIVE_RATIO_MEASURE(7850.),#77);
#79=PROPERTY_DEFINITION_REPRESENTATION(#84,#81);
#80=PROPERTY_DEFINITION_REPRESENTATION(#85,#82);
#81=REPRESENTATION('material name',(#83),#139);
#82=REPRESENTATION('density',(#78),#139);
#83=DESCRIPTIVE_REPRESENTATION_ITEM('Acier','Acier');
#84=PROPERTY_DEFINITION('material property','material name',#149);
#85=PROPERTY_DEFINITION('material property','density of part',#149);
#86=AXIS2_PLACEMENT_3D('placement',#119,#96,#97);
#87=AXIS2_PLACEMENT_3D('',#120,#98,#99);
#88=AXIS2_PLACEMENT_3D('',#122,#100,#101);
#89=AXIS2_PLACEMENT_3D('',#125,#103,#104);
#90=AXIS2_PLACEMENT_3D('',#127,#105,#106);
#91=AXIS2_PLACEMENT_3D('',#128,#107,#108);
#92=AXIS2_PLACEMENT_3D('',#130,#109,#110);
#93=AXIS2_PLACEMENT_3D('',#132,#112,#113);
#94=AXIS2_PLACEMENT_3D('',#134,#114,#115);
#95=AXIS2_PLACEMENT_3D('',#135,#116,#117);
#96=DIRECTION('axis',(0.,0.,1.));
#97=DIRECTION('refdir',(1.,0.,0.));
#98=DIRECTION('center_axis',(0.,0.,1.));
#99=DIRECTION('ref_axis',(1.,0.,0.));
#100=DIRECTION('center_axis',(0.,0.,1.));
#101=DIRECTION('ref_axis',(1.,0.,0.));
#102=DIRECTION('',(0.866025403784439,1.06057523872491E-16,-0.5));
#103=DIRECTION('center_axis',(0.,0.,-1.));
#104=DIRECTION('ref_axis',(-1.,0.,0.));
#105=DIRECTION('center_axis',(0.,0.,1.));
#106=DIRECTION('ref_axis',(1.,0.,0.));
#107=DIRECTION('center_axis',(0.,0.,1.));
#108=DIRECTION('ref_axis',(1.,0.,0.));
#109=DIRECTION('center_axis',(0.,0.,1.));
#110=DIRECTION('ref_axis',(1.,0.,0.));
#111=DIRECTION('',(0.,0.,-1.));
#112=DIRECTION('center_axis',(0.,0.,1.));
#113=DIRECTION('ref_axis',(1.,0.,0.));
#114=DIRECTION('center_axis',(0.,0.,1.));
#115=DIRECTION('ref_axis',(1.,0.,0.));
#116=DIRECTION('center_axis',(0.,0.,1.));
#117=DIRECTION('ref_axis',(1.,0.,0.));
#118=DIRECTION('',(0.,0.,-1.));
#119=CARTESIAN_POINT('',(0.,0.,0.));
#120=CARTESIAN_POINT('Origin',(0.,0.,13.5566243270259));
#121=CARTESIAN_POINT('',(-5.,-6.12323399573677E-16,15.));
#122=CARTESIAN_POINT('Origin',(0.,0.,15.));
#123=CARTESIAN_POINT('',(0.,0.,12.1132486540519));
#124=CARTESIAN_POINT('',(-2.5,-3.06161699786838E-16,13.5566243270259));
#125=CARTESIAN_POINT('Origin',(7.5,0.,0.));
#126=CARTESIAN_POINT('',(-7.5,-9.18485099360515E-16,0.));
#127=CARTESIAN_POINT('Origin',(0.,0.,0.));
#128=CARTESIAN_POINT('Origin',(0.,0.,25.));
#129=CARTESIAN_POINT('',(-7.5,-9.18485099360515E-16,50.));
#130=CARTESIAN_POINT('Origin',(0.,0.,50.));
#131=CARTESIAN_POINT('',(-7.5,-9.18485099360515E-16,25.));
#132=CARTESIAN_POINT('Origin',(5.,0.,50.));
#133=CARTESIAN_POINT('',(-5.,-6.12323399573677E-16,50.0000007450581));
#134=CARTESIAN_POINT('Origin',(0.,0.,50.0000007450581));
#135=CARTESIAN_POINT('Origin',(0.,0.,32.500000372529));
#136=CARTESIAN_POINT('',(-5.,-6.12323399573677E-16,32.500000372529));
#137=UNCERTAINTY_MEASURE_WITH_UNIT(LENGTH_MEASURE(0.01),#141,
'DISTANCE_ACCURACY_VALUE',
'Maximum model space distance between geometric entities at asserted c
onnectivities');
#138=UNCERTAINTY_MEASURE_WITH_UNIT(LENGTH_MEASURE(0.01),#141,
'DISTANCE_ACCURACY_VALUE',
'Maximum model space distance between geometric entities at asserted c
onnectivities');
#139=(
GEOMETRIC_REPRESENTATION_CONTEXT(3)
GLOBAL_UNCERTAINTY_ASSIGNED_CONTEXT((#137))
GLOBAL_UNIT_ASSIGNED_CONTEXT((#141,#143,#144))
REPRESENTATION_CONTEXT('','3D')
);
#140=(
GEOMETRIC_REPRESENTATION_CONTEXT(3)
GLOBAL_UNCERTAINTY_ASSIGNED_CONTEXT((#138))
GLOBAL_UNIT_ASSIGNED_CONTEXT((#141,#143,#144))
REPRESENTATION_CONTEXT('','3D')
);
#141=(
LENGTH_UNIT()
NAMED_UNIT(*)
SI_UNIT(.MILLI.,.METRE.)
);
#142=(
LENGTH_UNIT()
NAMED_UNIT(*)
SI_UNIT($,.METRE.)
);
#143=(
NAMED_UNIT(*)
PLANE_ANGLE_UNIT()
SI_UNIT($,.RADIAN.)
);
#144=(
NAMED_UNIT(*)
SI_UNIT($,.STERADIAN.)
SOLID_ANGLE_UNIT()
);
#145=SHAPE_DEFINITION_REPRESENTATION(#146,#147);
#146=PRODUCT_DEFINITION_SHAPE('',$,#149);
#147=SHAPE_REPRESENTATION('',(#86),#139);
#148=PRODUCT_DEFINITION_CONTEXT('part definition',#153,'design');
#149=PRODUCT_DEFINITION('(Non enregistr\X\E9)','(Non enregistr\X\E9)',#150,
#148);
#150=PRODUCT_DEFINITION_FORMATION('',$,#155);
#151=PRODUCT_RELATED_PRODUCT_CATEGORY('(Non enregistr\X\E9)',
'(Non enregistr\X\E9)',(#155));
#152=APPLICATION_PROTOCOL_DEFINITION('international standard',
'automotive_design',2009,#153);
#153=APPLICATION_CONTEXT(
'Core Data for Automotive Mechanical Design Process');
#154=PRODUCT_CONTEXT('part definition',#153,'mechanical');
#155=PRODUCT('(Non enregistr\X\E9)','(Non enregistr\X\E9)',$,(#154));
#156=PRESENTATION_STYLE_ASSIGNMENT((#157));
#157=SURFACE_STYLE_USAGE(.BOTH.,#158);
#158=SURFACE_SIDE_STYLE('',(#159));
#159=SURFACE_STYLE_FILL_AREA(#160);
#160=FILL_AREA_STYLE('Acier - Satin\X\E9',(#161));
#161=FILL_AREA_STYLE_COLOUR('Acier - Satin\X\E9',#162);
#162=COLOUR_RGB('Acier - Satin\X\E9',0.627450980392157,0.627450980392157,
0.627450980392157);
ENDSEC;
END-ISO-10303-21;
