ISO-10303-21;
HEADER;
/* Generated by software containing ST-Developer
 * from STEP Tools, Inc. (www.steptools.com) 
 */

FILE_DESCRIPTION(
/* description */ (''),
/* implementation_level */ '2;1');

FILE_NAME(
/* name */ '/Users/j0hn/Desktop/Axe v2.step',
/* time_stamp */ '2021-10-07T19:47:26+02:00',
/* author */ (''),
/* organization */ (''),
/* preprocessor_version */ 'ST-DEVELOPER v18.1',
/* originating_system */ 'Autodesk Translation Framework v10.10.0.1391',

/* authorisation */ '');

FILE_SCHEMA (('AUTOMOTIVE_DESIGN { 1 0 10303 214 3 1 1 }'));
ENDSEC;

DATA;
#10=MECHANICAL_DESIGN_GEOMETRIC_PRESENTATION_REPRESENTATION('',(#13),#295);
#11=SHAPE_REPRESENTATION_RELATIONSHIP('SRR','None',#302,#12);
#12=ADVANCED_BREP_SHAPE_REPRESENTATION('',(#14),#294);
#13=STYLED_ITEM('',(#312),#14);
#14=MANIFOLD_SOLID_BREP('Support',#160);
#15=FACE_BOUND('',#39,.T.);
#16=FACE_BOUND('',#42,.T.);
#17=FACE_BOUND('',#46,.T.);
#18=PLANE('',#179);
#19=PLANE('',#183);
#20=PLANE('',#189);
#21=CYLINDRICAL_SURFACE('',#177,9.5);
#22=CYLINDRICAL_SURFACE('',#185,8.45);
#23=CYLINDRICAL_SURFACE('',#194,1.65);
#24=CYLINDRICAL_SURFACE('',#195,1.24999999999999);
#25=FACE_OUTER_BOUND('',#36,.T.);
#26=FACE_OUTER_BOUND('',#37,.T.);
#27=FACE_OUTER_BOUND('',#38,.T.);
#28=FACE_OUTER_BOUND('',#40,.T.);
#29=FACE_OUTER_BOUND('',#41,.T.);
#30=FACE_OUTER_BOUND('',#43,.T.);
#31=FACE_OUTER_BOUND('',#44,.T.);
#32=FACE_OUTER_BOUND('',#45,.T.);
#33=FACE_OUTER_BOUND('',#47,.T.);
#34=FACE_OUTER_BOUND('',#48,.T.);
#35=FACE_OUTER_BOUND('',#49,.T.);
#36=EDGE_LOOP('',(#107,#108,#109,#110));
#37=EDGE_LOOP('',(#111,#112,#113,#114));
#38=EDGE_LOOP('',(#115));
#39=EDGE_LOOP('',(#116));
#40=EDGE_LOOP('',(#117,#118,#119,#120));
#41=EDGE_LOOP('',(#121));
#42=EDGE_LOOP('',(#122));
#43=EDGE_LOOP('',(#123,#124,#125,#126));
#44=EDGE_LOOP('',(#127,#128,#129,#130));
#45=EDGE_LOOP('',(#131));
#46=EDGE_LOOP('',(#132));
#47=EDGE_LOOP('',(#133,#134,#135,#136));
#48=EDGE_LOOP('',(#137,#138,#139,#140));
#49=EDGE_LOOP('',(#141,#142,#143,#144));
#50=LINE('',#255,#58);
#51=LINE('',#260,#59);
#52=LINE('',#267,#60);
#53=LINE('',#274,#61);
#54=LINE('',#278,#62);
#55=LINE('',#286,#63);
#56=LINE('',#289,#64);
#57=LINE('',#291,#65);
#58=VECTOR('',#202,9.37500000000001);
#59=VECTOR('',#209,9.5);
#60=VECTOR('',#218,9.24999999999999);
#61=VECTOR('',#227,8.45);
#62=VECTOR('',#232,8.2);
#63=VECTOR('',#241,0.824999999999998);
#64=VECTOR('',#246,1.65);
#65=VECTOR('',#249,1.24999999999999);
#66=CIRCLE('',#175,9.5);
#67=CIRCLE('',#176,9.25);
#68=CIRCLE('',#178,9.5);
#69=CIRCLE('',#180,8.45);
#70=CIRCLE('',#182,8.99999999999999);
#71=CIRCLE('',#184,1.65);
#72=CIRCLE('',#186,8.45);
#73=CIRCLE('',#188,7.95);
#74=CIRCLE('',#190,1.24999999999999);
#75=CIRCLE('',#192,1.65);
#76=CIRCLE('',#193,1.24999999999999);
#77=VERTEX_POINT('',#252);
#78=VERTEX_POINT('',#254);
#79=VERTEX_POINT('',#258);
#80=VERTEX_POINT('',#262);
#81=VERTEX_POINT('',#265);
#82=VERTEX_POINT('',#269);
#83=VERTEX_POINT('',#272);
#84=VERTEX_POINT('',#276);
#85=VERTEX_POINT('',#280);
#86=VERTEX_POINT('',#283);
#87=VERTEX_POINT('',#285);
#88=EDGE_CURVE('',#77,#77,#66,.T.);
#89=EDGE_CURVE('',#77,#78,#50,.T.);
#90=EDGE_CURVE('',#78,#78,#67,.T.);
#91=EDGE_CURVE('',#79,#79,#68,.T.);
#92=EDGE_CURVE('',#79,#77,#51,.T.);
#93=EDGE_CURVE('',#80,#80,#69,.T.);
#94=EDGE_CURVE('',#81,#81,#70,.T.);
#95=EDGE_CURVE('',#81,#79,#52,.T.);
#96=EDGE_CURVE('',#82,#82,#71,.T.);
#97=EDGE_CURVE('',#83,#83,#72,.T.);
#98=EDGE_CURVE('',#83,#80,#53,.T.);
#99=EDGE_CURVE('',#84,#84,#73,.T.);
#100=EDGE_CURVE('',#84,#83,#54,.T.);
#101=EDGE_CURVE('',#85,#85,#74,.T.);
#102=EDGE_CURVE('',#86,#86,#75,.T.);
#103=EDGE_CURVE('',#86,#87,#55,.T.);
#104=EDGE_CURVE('',#87,#87,#76,.T.);
#105=EDGE_CURVE('',#82,#86,#56,.T.);
#106=EDGE_CURVE('',#87,#85,#57,.T.);
#107=ORIENTED_EDGE('',*,*,#88,.T.);
#108=ORIENTED_EDGE('',*,*,#89,.T.);
#109=ORIENTED_EDGE('',*,*,#90,.T.);
#110=ORIENTED_EDGE('',*,*,#89,.F.);
#111=ORIENTED_EDGE('',*,*,#91,.F.);
#112=ORIENTED_EDGE('',*,*,#92,.T.);
#113=ORIENTED_EDGE('',*,*,#88,.F.);
#114=ORIENTED_EDGE('',*,*,#92,.F.);
#115=ORIENTED_EDGE('',*,*,#90,.F.);
#116=ORIENTED_EDGE('',*,*,#93,.F.);
#117=ORIENTED_EDGE('',*,*,#94,.T.);
#118=ORIENTED_EDGE('',*,*,#95,.T.);
#119=ORIENTED_EDGE('',*,*,#91,.T.);
#120=ORIENTED_EDGE('',*,*,#95,.F.);
#121=ORIENTED_EDGE('',*,*,#94,.F.);
#122=ORIENTED_EDGE('',*,*,#96,.T.);
#123=ORIENTED_EDGE('',*,*,#97,.F.);
#124=ORIENTED_EDGE('',*,*,#98,.T.);
#125=ORIENTED_EDGE('',*,*,#93,.T.);
#126=ORIENTED_EDGE('',*,*,#98,.F.);
#127=ORIENTED_EDGE('',*,*,#99,.T.);
#128=ORIENTED_EDGE('',*,*,#100,.T.);
#129=ORIENTED_EDGE('',*,*,#97,.T.);
#130=ORIENTED_EDGE('',*,*,#100,.F.);
#131=ORIENTED_EDGE('',*,*,#99,.F.);
#132=ORIENTED_EDGE('',*,*,#101,.T.);
#133=ORIENTED_EDGE('',*,*,#102,.F.);
#134=ORIENTED_EDGE('',*,*,#103,.T.);
#135=ORIENTED_EDGE('',*,*,#104,.F.);
#136=ORIENTED_EDGE('',*,*,#103,.F.);
#137=ORIENTED_EDGE('',*,*,#96,.F.);
#138=ORIENTED_EDGE('',*,*,#105,.T.);
#139=ORIENTED_EDGE('',*,*,#102,.T.);
#140=ORIENTED_EDGE('',*,*,#105,.F.);
#141=ORIENTED_EDGE('',*,*,#104,.T.);
#142=ORIENTED_EDGE('',*,*,#106,.T.);
#143=ORIENTED_EDGE('',*,*,#101,.F.);
#144=ORIENTED_EDGE('',*,*,#106,.F.);
#145=CONICAL_SURFACE('',#174,9.375,0.785398163397455);
#146=CONICAL_SURFACE('',#181,9.25,0.785398163397454);
#147=CONICAL_SURFACE('',#187,8.2,0.785398163397446);
#148=CONICAL_SURFACE('',#191,0.824999999999998,1.02974425867665);
#149=ADVANCED_FACE('',(#25),#145,.T.);
#150=ADVANCED_FACE('',(#26),#21,.T.);
#151=ADVANCED_FACE('',(#27,#15),#18,.F.);
#152=ADVANCED_FACE('',(#28),#146,.T.);
#153=ADVANCED_FACE('',(#29,#16),#19,.T.);
#154=ADVANCED_FACE('',(#30),#22,.T.);
#155=ADVANCED_FACE('',(#31),#147,.T.);
#156=ADVANCED_FACE('',(#32,#17),#20,.T.);
#157=ADVANCED_FACE('',(#33),#148,.F.);
#158=ADVANCED_FACE('',(#34),#23,.F.);
#159=ADVANCED_FACE('',(#35),#24,.F.);
#160=CLOSED_SHELL('',(#149,#150,#151,#152,#153,#154,#155,#156,#157,#158,
#159));
#161=DERIVED_UNIT_ELEMENT(#163,1.);
#162=DERIVED_UNIT_ELEMENT(#297,-3.);
#163=(
MASS_UNIT()
NAMED_UNIT(*)
SI_UNIT(.KILO.,.GRAM.)
);
#164=DERIVED_UNIT((#161,#162));
#165=MEASURE_REPRESENTATION_ITEM('density measure',
POSITIVE_RATIO_MEASURE(7850.),#164);
#166=PROPERTY_DEFINITION_REPRESENTATION(#171,#168);
#167=PROPERTY_DEFINITION_REPRESENTATION(#172,#169);
#168=REPRESENTATION('material name',(#170),#294);
#169=REPRESENTATION('density',(#165),#294);
#170=DESCRIPTIVE_REPRESENTATION_ITEM('Acier','Acier');
#171=PROPERTY_DEFINITION('material property','material name',#304);
#172=PROPERTY_DEFINITION('material property','density of part',#304);
#173=AXIS2_PLACEMENT_3D('placement',#250,#196,#197);
#174=AXIS2_PLACEMENT_3D('',#251,#198,#199);
#175=AXIS2_PLACEMENT_3D('',#253,#200,#201);
#176=AXIS2_PLACEMENT_3D('',#256,#203,#204);
#177=AXIS2_PLACEMENT_3D('',#257,#205,#206);
#178=AXIS2_PLACEMENT_3D('',#259,#207,#208);
#179=AXIS2_PLACEMENT_3D('',#261,#210,#211);
#180=AXIS2_PLACEMENT_3D('',#263,#212,#213);
#181=AXIS2_PLACEMENT_3D('',#264,#214,#215);
#182=AXIS2_PLACEMENT_3D('',#266,#216,#217);
#183=AXIS2_PLACEMENT_3D('',#268,#219,#220);
#184=AXIS2_PLACEMENT_3D('',#270,#221,#222);
#185=AXIS2_PLACEMENT_3D('',#271,#223,#224);
#186=AXIS2_PLACEMENT_3D('',#273,#225,#226);
#187=AXIS2_PLACEMENT_3D('',#275,#228,#229);
#188=AXIS2_PLACEMENT_3D('',#277,#230,#231);
#189=AXIS2_PLACEMENT_3D('',#279,#233,#234);
#190=AXIS2_PLACEMENT_3D('',#281,#235,#236);
#191=AXIS2_PLACEMENT_3D('',#282,#237,#238);
#192=AXIS2_PLACEMENT_3D('',#284,#239,#240);
#193=AXIS2_PLACEMENT_3D('',#287,#242,#243);
#194=AXIS2_PLACEMENT_3D('',#288,#244,#245);
#195=AXIS2_PLACEMENT_3D('',#290,#247,#248);
#196=DIRECTION('axis',(0.,0.,1.));
#197=DIRECTION('refdir',(1.,0.,0.));
#198=DIRECTION('center_axis',(1.64661699828659E-17,-1.,0.));
#199=DIRECTION('ref_axis',(-8.90928193314499E-15,-3.58929365660904E-17,
-1.));
#200=DIRECTION('center_axis',(-1.64661699828162E-17,1.,-7.76728660891958E-18));
#201=DIRECTION('ref_axis',(-8.90928193314499E-15,-6.32784378401776E-17,
-1.));
#202=DIRECTION('',(-6.22486140526116E-15,0.707106781186543,-0.707106781186552));
#203=DIRECTION('center_axis',(1.64661699828162E-17,-1.,7.76728660891958E-18));
#204=DIRECTION('ref_axis',(-8.90928193314499E-15,-7.76728660891972E-18,
-1.));
#205=DIRECTION('center_axis',(2.34050640351917E-17,-1.,6.32784378401774E-17));
#206=DIRECTION('ref_axis',(-8.90928193314499E-15,-6.32784378401776E-17,
-1.));
#207=DIRECTION('center_axis',(1.64661699828162E-17,-1.,7.76728660891958E-18));
#208=DIRECTION('ref_axis',(-8.90928193314499E-15,-6.32784378401776E-17,
-1.));
#209=DIRECTION('',(-2.34050640351917E-17,1.,-6.32784378401774E-17));
#210=DIRECTION('center_axis',(1.64661699828162E-17,-1.,7.76728660891958E-18));
#211=DIRECTION('ref_axis',(-8.90928193314499E-15,-7.76728660891973E-18,
-1.));
#212=DIRECTION('center_axis',(-1.64661699828162E-17,1.,-7.76728660891958E-18));
#213=DIRECTION('ref_axis',(8.90928227460092E-15,-1.07364304681662E-17,1.));
#214=DIRECTION('center_axis',(-1.64661699828028E-17,1.,0.));
#215=DIRECTION('ref_axis',(-8.90928193314499E-15,-3.6273012916863E-17,-1.));
#216=DIRECTION('center_axis',(-1.64661699828162E-17,1.,-7.76728660891958E-18));
#217=DIRECTION('ref_axis',(-8.90928193314499E-15,-7.76728660891973E-18,
-1.));
#218=DIRECTION('',(6.20157472435109E-15,0.707106781186543,0.707106781186552));
#219=DIRECTION('center_axis',(1.64661699828162E-17,-1.,7.76728660891958E-18));
#220=DIRECTION('ref_axis',(-8.90928193314499E-15,-7.76728660891973E-18,
-1.));
#221=DIRECTION('center_axis',(0.,1.,0.));
#222=DIRECTION('ref_axis',(-2.22044604925033E-16,3.30699684880906E-18,-1.));
#223=DIRECTION('center_axis',(2.3405064035191E-17,-1.,-1.07364304681664E-17));
#224=DIRECTION('ref_axis',(8.90928227460092E-15,-1.07364304681662E-17,1.));
#225=DIRECTION('center_axis',(0.,1.,0.));
#226=DIRECTION('ref_axis',(8.90928227460092E-15,-1.07364304681662E-17,1.));
#227=DIRECTION('',(2.3405064035191E-17,-1.,-1.07364304681664E-17));
#228=DIRECTION('center_axis',(0.,-1.,0.));
#229=DIRECTION('ref_axis',(8.90928227460091E-15,-5.53188033268319E-18,1.));
#230=DIRECTION('center_axis',(0.,-1.,0.));
#231=DIRECTION('ref_axis',(8.90928227460092E-15,0.,1.));
#232=DIRECTION('',(-6.38640951749895E-15,-0.707106781186549,-0.707106781186546));
#233=DIRECTION('center_axis',(0.,1.,0.));
#234=DIRECTION('ref_axis',(1.,0.,0.));
#235=DIRECTION('center_axis',(0.,-1.,0.));
#236=DIRECTION('ref_axis',(7.88860905221018E-31,-8.62816615085488E-32,-1.));
#237=DIRECTION('center_axis',(-1.71754966951323E-17,-1.,-3.30699684880906E-18));
#238=DIRECTION('ref_axis',(-2.22044604925033E-16,3.30699684880906E-18,-1.));
#239=DIRECTION('center_axis',(1.71754966951323E-17,1.,3.30699684880906E-18));
#240=DIRECTION('ref_axis',(-2.22044604925033E-16,3.30699684880906E-18,-1.));
#241=DIRECTION('',(-2.86456058999434E-16,0.515038074910054,-0.857167300702112));
#242=DIRECTION('center_axis',(-2.71734928753239E-32,-1.,8.62816615085482E-32));
#243=DIRECTION('ref_axis',(7.88860905221018E-31,-8.62816615085488E-32,-1.));
#244=DIRECTION('center_axis',(1.71754966951323E-17,1.,3.30699684880906E-18));
#245=DIRECTION('ref_axis',(-2.22044604925033E-16,3.30699684880906E-18,-1.));
#246=DIRECTION('',(1.71754966951323E-17,1.,3.30699684880906E-18));
#247=DIRECTION('center_axis',(2.71734928753239E-32,1.,-8.62816615085482E-32));
#248=DIRECTION('ref_axis',(7.88860905221018E-31,-8.62816615085488E-32,-1.));
#249=DIRECTION('',(2.71734928753239E-32,1.,-8.62816615085482E-32));
#250=CARTESIAN_POINT('',(0.,0.,0.));
#251=CARTESIAN_POINT('Origin',(-1.95414183390425E-13,1.37499999701977,-85.0000012665987));
#252=CARTESIAN_POINT('',(-1.0961053229511E-13,1.24999999701977,-75.5000012665987));
#253=CARTESIAN_POINT('Origin',(-1.95412125119177E-13,1.24999999701977,-85.0000012665987));
#254=CARTESIAN_POINT('',(-1.14138182069293E-13,1.49999999701977,-75.7500012665987));
#255=CARTESIAN_POINT('',(-1.13037771641391E-13,1.37499999701977,-75.6250012665987));
#256=CARTESIAN_POINT('Origin',(-1.95416241661673E-13,1.49999999701977,-85.0000012665987));
#257=CARTESIAN_POINT('Origin',(-1.95399252334028E-13,0.7,-85.0000012665987));
#258=CARTESIAN_POINT('',(-1.11475111226068E-13,-18.4999988377094,-75.5000012665987));
#259=CARTESIAN_POINT('Origin',(-1.94949875131755E-13,-18.4999988377094,
-85.0000012665987));
#260=CARTESIAN_POINT('',(-1.1192448842834E-13,0.700000000000001,-75.5000012665987));
#261=CARTESIAN_POINT('Origin',(-1.86530641073013E-13,1.49999999701977,-85.0000012665987));
#262=CARTESIAN_POINT('',(-1.11721351714206E-13,1.49999999701977,-93.4500012665987));
#263=CARTESIAN_POINT('Origin',(-3.54030899485487E-14,1.49999999701977,-85.0000012665987));
#264=CARTESIAN_POINT('Origin',(-1.9494575858926E-13,-18.7499988377094,-85.0000012665987));
#265=CARTESIAN_POINT('',(-1.13655922529227E-13,-18.9999988377094,-76.0000012665987));
#266=CARTESIAN_POINT('Origin',(-1.94941642046764E-13,-18.9999988377094,
-85.0000012665987));
#267=CARTESIAN_POINT('',(-1.1366769899688E-13,-18.7499988377094,-75.7500012665987));
#268=CARTESIAN_POINT('Origin',(-1.86209550777535E-13,-18.9999988377094,
-85.0000012665987));
#269=CARTESIAN_POINT('',(-7.06146494812379E-14,-18.9999987900257,-83.3500012665987));
#270=CARTESIAN_POINT('Origin',(-7.11830898012235E-14,-18.9999987900257,
-85.0000012665987));
#271=CARTESIAN_POINT('Origin',(-3.5527136788005E-14,6.80000000000001,-85.0000012665987));
#272=CARTESIAN_POINT('',(-1.11833696021645E-13,6.3,-93.4500012665987));
#273=CARTESIAN_POINT('Origin',(-3.55154342559874E-14,6.3,-85.0000012665987));
#274=CARTESIAN_POINT('',(-1.09775745463103E-13,6.80000000000001,-93.4500012665987));
#275=CARTESIAN_POINT('Origin',(-3.55154342559874E-14,6.55,-85.0000012665987));
#276=CARTESIAN_POINT('',(-1.05370634133743E-13,6.8,-92.9500012665987));
#277=CARTESIAN_POINT('Origin',(-3.55154342559874E-14,6.8,-85.0000012665987));
#278=CARTESIAN_POINT('',(-1.09575759283016E-13,6.55,-93.2000012665987));
#279=CARTESIAN_POINT('Origin',(0.,6.8,-67.5000006332994));
#280=CARTESIAN_POINT('',(-2.51330989039594E-14,6.8,-83.7500012665988));
#281=CARTESIAN_POINT('Origin',(-2.4980018054066E-14,6.8,-85.0000012665987));
#282=CARTESIAN_POINT('Origin',(-7.105427357601E-14,-3.50428877932796,-85.0000012665987));
#283=CARTESIAN_POINT('',(-7.04943473216749E-14,-3.9999987900257,-83.3500012665987));
#284=CARTESIAN_POINT('Origin',(-7.105427357601E-14,-3.9999987900257,-85.0000012665987));
#285=CARTESIAN_POINT('',(-2.51330989039594E-14,-3.75965454241467,-83.7500012665988));
#286=CARTESIAN_POINT('',(-7.07700534160172E-14,-3.50428877932796,-84.1750012665987));
#287=CARTESIAN_POINT('Origin',(-2.4980018054066E-14,-3.75965454241467,-85.0000012665987));
#288=CARTESIAN_POINT('Origin',(-7.105427357601E-14,-11.4999987900257,-85.0000012665987));
#289=CARTESIAN_POINT('',(-7.04858332560244E-14,-11.4999987900257,-83.3500012665987));
#290=CARTESIAN_POINT('Origin',(-2.4980018054066E-14,31.0500012099743,-85.0000012665987));
#291=CARTESIAN_POINT('',(-2.48269372041726E-14,31.0500012099743,-83.7500012665988));
#292=UNCERTAINTY_MEASURE_WITH_UNIT(LENGTH_MEASURE(0.01),#296,
'DISTANCE_ACCURACY_VALUE',
'Maximum model space distance between geometric entities at asserted c
onnectivities');
#293=UNCERTAINTY_MEASURE_WITH_UNIT(LENGTH_MEASURE(0.01),#296,
'DISTANCE_ACCURACY_VALUE',
'Maximum model space distance between geometric entities at asserted c
onnectivities');
#294=(
GEOMETRIC_REPRESENTATION_CONTEXT(3)
GLOBAL_UNCERTAINTY_ASSIGNED_CONTEXT((#292))
GLOBAL_UNIT_ASSIGNED_CONTEXT((#296,#298,#299))
REPRESENTATION_CONTEXT('','3D')
);
#295=(
GEOMETRIC_REPRESENTATION_CONTEXT(3)
GLOBAL_UNCERTAINTY_ASSIGNED_CONTEXT((#293))
GLOBAL_UNIT_ASSIGNED_CONTEXT((#296,#298,#299))
REPRESENTATION_CONTEXT('','3D')
);
#296=(
LENGTH_UNIT()
NAMED_UNIT(*)
SI_UNIT(.MILLI.,.METRE.)
);
#297=(
LENGTH_UNIT()
NAMED_UNIT(*)
SI_UNIT($,.METRE.)
);
#298=(
NAMED_UNIT(*)
PLANE_ANGLE_UNIT()
SI_UNIT($,.RADIAN.)
);
#299=(
NAMED_UNIT(*)
SI_UNIT($,.STERADIAN.)
SOLID_ANGLE_UNIT()
);
#300=SHAPE_DEFINITION_REPRESENTATION(#301,#302);
#301=PRODUCT_DEFINITION_SHAPE('',$,#304);
#302=SHAPE_REPRESENTATION('',(#173),#294);
#303=PRODUCT_DEFINITION_CONTEXT('part definition',#308,'design');
#304=PRODUCT_DEFINITION('Axe (1)','Axe (1)',#305,#303);
#305=PRODUCT_DEFINITION_FORMATION('',$,#310);
#306=PRODUCT_RELATED_PRODUCT_CATEGORY('Axe (1)','Axe (1)',(#310));
#307=APPLICATION_PROTOCOL_DEFINITION('international standard',
'automotive_design',2009,#308);
#308=APPLICATION_CONTEXT(
'Core Data for Automotive Mechanical Design Process');
#309=PRODUCT_CONTEXT('part definition',#308,'mechanical');
#310=PRODUCT('Axe (1)','Axe (1)',$,(#309));
#311=PRESENTATION_STYLE_ASSIGNMENT((#313));
#312=PRESENTATION_STYLE_ASSIGNMENT((#314));
#313=SURFACE_STYLE_USAGE(.BOTH.,#315);
#314=SURFACE_STYLE_USAGE(.BOTH.,#316);
#315=SURFACE_SIDE_STYLE('',(#317));
#316=SURFACE_SIDE_STYLE('',(#318));
#317=SURFACE_STYLE_FILL_AREA(#319);
#318=SURFACE_STYLE_FILL_AREA(#320);
#319=FILL_AREA_STYLE('Aluminium - Satin\X\E9',(#321));
#320=FILL_AREA_STYLE('Peinture - Brillant \X\E9maill\X\E9 (bleu)',(#322));
#321=FILL_AREA_STYLE_COLOUR('Aluminium - Satin\X\E9',#323);
#322=FILL_AREA_STYLE_COLOUR('Peinture - Brillant \X\E9maill\X\E9 (bleu
)',#324);
#323=COLOUR_RGB('Aluminium - Satin\X\E9',0.96078431372549,0.96078431372549,
0.964705882352941);
#324=COLOUR_RGB('Peinture - Brillant \X\E9maill\X\E9 (bleu)',0.188235294117647,
0.231372549019608,0.588235294117647);
ENDSEC;
END-ISO-10303-21;
