ISO-10303-21;
HEADER;
FILE_DESCRIPTION (( 'STEP AP214' ),
    '1' );
FILE_NAME ('plexis 2.STEP',
    '2021-11-03T10:22:12',
    ( '' ),
    ( '' ),
    'SwSTEP 2.0',
    'SolidWorks 2014',
    '' );
FILE_SCHEMA (( 'AUTOMOTIVE_DESIGN' ));
ENDSEC;

DATA;
#1 = CARTESIAN_POINT ( 'NONE',  ( 0.0000000000000000000, 0.0000000000000000000, 0.0000000000000000000 ) ) ;
#2 = COLOUR_RGB ( '',0.7921568627450980000, 0.8196078431372548800, 0.9333333333333333500 ) ;
#3 = MECHANICAL_DESIGN_GEOMETRIC_PRESENTATION_REPRESENTATION (  '', ( #185 ), #201 ) ;
#4 = CARTESIAN_POINT ( 'NONE',  ( -639.9999999999998900, 339.9999999999998900, 0.0000000000000000000 ) ) ;
#5 = ORIENTED_EDGE ( 'NONE', *, *, #65, .T. ) ;
#6 = DIRECTION ( 'NONE',  ( 1.000000000000000000, 0.0000000000000000000, -0.0000000000000000000 ) ) ;
#7 = DIRECTION ( 'NONE',  ( -0.0000000000000000000, -0.0000000000000000000, -1.000000000000000000 ) ) ;
#8 =( GEOMETRIC_REPRESENTATION_CONTEXT ( 3 ) GLOBAL_UNCERTAINTY_ASSIGNED_CONTEXT ( ( #285 ) ) GLOBAL_UNIT_ASSIGNED_CONTEXT ( ( #273, #272, #70 ) ) REPRESENTATION_CONTEXT ( 'NONE', 'WORKASPACE' ) );
#9 = CARTESIAN_POINT ( 'NONE',  ( 19.99999999999998900, 349.9999999999999400, 0.0000000000000000000 ) ) ;
#10 = LINE ( 'NONE', #291, #255 ) ;
#11 = VERTEX_POINT ( 'NONE', #330 ) ;
#12 = EDGE_CURVE ( 'NONE', #39, #46, #217, .T. ) ;
#13 = AXIS2_PLACEMENT_3D ( 'NONE', #293, #292, #63 ) ;
#14 = CARTESIAN_POINT ( 'NONE',  ( -640.0000000000000000, 1.232595164407830900E-029, 8.000000000000000000 ) ) ;
#15 = FACE_OUTER_BOUND ( 'NONE', #162, .T. ) ;
#16 = CARTESIAN_POINT ( 'NONE',  ( 19.99999999999998900, 349.9999999999999400, 8.000000000000000000 ) ) ;
#17 = LINE ( 'NONE', #81, #144 ) ;
#18 = DIRECTION ( 'NONE',  ( -0.0000000000000000000, -0.0000000000000000000, -1.000000000000000000 ) ) ;
#19 = AXIS2_PLACEMENT_3D ( 'NONE', #261, #282, #56 ) ;
#20 = VERTEX_POINT ( 'NONE', #241 ) ;
#21 = VECTOR ( 'NONE', #284, 1000.000000000000000 ) ;
#22 = ORIENTED_EDGE ( 'NONE', *, *, #111, .T. ) ;
#23 = EDGE_CURVE ( 'NONE', #166, #244, #174, .T. ) ;
#24 =( NAMED_UNIT ( * ) SI_UNIT ( $, .STERADIAN. ) SOLID_ANGLE_UNIT ( ) );
#25 = LINE ( 'NONE', #129, #309 ) ;
#26 = EDGE_CURVE ( 'NONE', #172, #244, #151, .T. ) ;
#27 = LINE ( 'NONE', #97, #48 ) ;
#28 = ORIENTED_EDGE ( 'NONE', *, *, #223, .F. ) ;
#29 = DIRECTION ( 'NONE',  ( 1.000000000000000000, -1.925929944387235900E-032, 0.0000000000000000000 ) ) ;
#30 = DIRECTION ( 'NONE',  ( -0.0000000000000000000, -0.0000000000000000000, -1.000000000000000000 ) ) ;
#31 = FACE_OUTER_BOUND ( 'NONE', #191, .T. ) ;
#32 = CARTESIAN_POINT ( 'NONE',  ( 0.0000000000000000000, 0.0000000000000000000, 0.0000000000000000000 ) ) ;
#33 = CARTESIAN_POINT ( 'NONE',  ( 30.00000000000006400, 339.9999999999998900, 8.000000000000000000 ) ) ;
#34 = VERTEX_POINT ( 'NONE', #9 ) ;
#35 = ADVANCED_FACE ( 'NONE', ( #102 ), #136, .T. ) ;
#36 = PRESENTATION_STYLE_ASSIGNMENT (( #246 ) ) ;
#37 = DIRECTION ( 'NONE',  ( -0.0000000000000000000, -0.0000000000000000000, -1.000000000000000000 ) ) ;
#38 = DIRECTION ( 'NONE',  ( -1.000000000000000000, 8.540177112501207100E-017, 0.0000000000000000000 ) ) ;
#39 = VERTEX_POINT ( 'NONE', #220 ) ;
#40 = DIRECTION ( 'NONE',  ( -1.000000000000000000, 0.0000000000000000000, 0.0000000000000000000 ) ) ;
#41 = VECTOR ( 'NONE', #287, 1000.000000000000000 ) ;
#42 = PRESENTATION_LAYER_ASSIGNMENT (  '', '', ( #232 ) ) ;
#43 = DIRECTION ( 'NONE',  ( 0.0000000000000000000, 0.0000000000000000000, 1.000000000000000000 ) ) ;
#44 = CARTESIAN_POINT ( 'NONE',  ( -629.9999999999998900, 339.9999999999999400, 8.000000000000000000 ) ) ;
#45 = AXIS2_PLACEMENT_3D ( 'NONE', #1, #202, #305 ) ;
#46 = VERTEX_POINT ( 'NONE', #264 ) ;
#47 = APPLICATION_PROTOCOL_DEFINITION ( 'draft international standard', 'automotive_design', 1998, #197 ) ;
#48 = VECTOR ( 'NONE', #18, 1000.000000000000000 ) ;
#49 = EDGE_LOOP ( 'NONE', ( #295, #121, #156, #304 ) ) ;
#50 = AXIS2_PLACEMENT_3D ( 'NONE', #85, #271, #112 ) ;
#51 = ORIENTED_EDGE ( 'NONE', *, *, #257, .F. ) ;
#52 = FILL_AREA_STYLE ('',( #171 ) ) ;
#53 =( NAMED_UNIT ( * ) PLANE_ANGLE_UNIT ( ) SI_UNIT ( $, .RADIAN. ) );
#54 = VERTEX_POINT ( 'NONE', #190 ) ;
#55 = FACE_OUTER_BOUND ( 'NONE', #169, .T. ) ;
#56 = DIRECTION ( 'NONE',  ( 1.000000000000000000, 0.0000000000000000000, -0.0000000000000000000 ) ) ;
#57 = EDGE_LOOP ( 'NONE', ( #113, #308, #139, #239 ) ) ;
#58 = PLANE ( 'NONE',  #245 ) ;
#59 = CARTESIAN_POINT ( 'NONE',  ( -639.9999999999998900, 339.9999999999998900, 8.000000000000000000 ) ) ;
#60 = ADVANCED_FACE ( 'NONE', ( #199 ), #73, .T. ) ;
#61 = ORIENTED_EDGE ( 'NONE', *, *, #26, .F. ) ;
#62 = EDGE_CURVE ( 'NONE', #251, #183, #306, .T. ) ;
#63 = DIRECTION ( 'NONE',  ( -1.000000000000000000, 1.925929944387235900E-032, 0.0000000000000000000 ) ) ;
#64 = VECTOR ( 'NONE', #320, 1000.000000000000000 ) ;
#65 = EDGE_CURVE ( 'NONE', #54, #46, #17, .T. ) ;
#66 = UNCERTAINTY_MEASURE_WITH_UNIT (LENGTH_MEASURE( 1.000000000000000100E-005 ), #147, 'distance_accuracy_value', 'NONE');
#67 = DIRECTION ( 'NONE',  ( -1.000000000000000000, 0.0000000000000000000, 0.0000000000000000000 ) ) ;
#68 = AXIS2_PLACEMENT_3D ( 'NONE', #296, #37, #67 ) ;
#69 = PLANE ( 'NONE',  #160 ) ;
#70 =( NAMED_UNIT ( * ) SI_UNIT ( $, .STERADIAN. ) SOLID_ANGLE_UNIT ( ) );
#71 = PLANE ( 'NONE',  #78 ) ;
#72 = LINE ( 'NONE', #140, #254 ) ;
#73 = CYLINDRICAL_SURFACE ( 'NONE', #68, 10.00000000000000900 ) ;
#74 = ORIENTED_EDGE ( 'NONE', *, *, #181, .T. ) ;
#75 = AXIS2_PLACEMENT_3D ( 'NONE', #132, #130, #318 ) ;
#76 = DIRECTION ( 'NONE',  ( 3.265361837132814100E-016, 1.000000000000000000, 0.0000000000000000000 ) ) ;
#77 = CARTESIAN_POINT ( 'NONE',  ( 0.0000000000000000000, 0.0000000000000000000, 8.000000000000000000 ) ) ;
#78 = AXIS2_PLACEMENT_3D ( 'NONE', #186, #155, #6 ) ;
#79 = DIRECTION ( 'NONE',  ( -3.265361837132814100E-016, -1.000000000000000000, 0.0000000000000000000 ) ) ;
#80 = CARTESIAN_POINT ( 'NONE',  ( 19.99999999999998900, 349.9999999999999400, 0.0000000000000000000 ) ) ;
#81 = CARTESIAN_POINT ( 'NONE',  ( -639.9999999999998900, 339.9999999999998900, 8.000000000000000000 ) ) ;
#82 = VECTOR ( 'NONE', #331, 1000.000000000000000 ) ;
#83 = CARTESIAN_POINT ( 'NONE',  ( -629.9999999999998900, 339.9999999999999400, 0.0000000000000000000 ) ) ;
#84 = ORIENTED_EDGE ( 'NONE', *, *, #307, .F. ) ;
#85 = CARTESIAN_POINT ( 'NONE',  ( 20.00000000000006000, 339.9999999999998900, 8.000000000000000000 ) ) ;
#86 = PRESENTATION_STYLE_ASSIGNMENT (( #252 ) ) ;
#87 = ADVANCED_FACE ( 'NONE', ( #55 ), #189, .F. ) ;
#88 = DIRECTION ( 'NONE',  ( -3.265361837132814100E-016, -1.000000000000000000, 0.0000000000000000000 ) ) ;
#89 = LINE ( 'NONE', #80, #21 ) ;
#90 = ORIENTED_EDGE ( 'NONE', *, *, #223, .T. ) ;
#91 = FILL_AREA_STYLE ('',( #215 ) ) ;
#92 = AXIS2_PLACEMENT_3D ( 'NONE', #266, #109, #137 ) ;
#93 = ORIENTED_EDGE ( 'NONE', *, *, #270, .F. ) ;
#94 = EDGE_CURVE ( 'NONE', #244, #34, #265, .T. ) ;
#95 = ADVANCED_BREP_SHAPE_REPRESENTATION ( 'plexis 2', ( #98, #45 ), #209 ) ;
#96 = ORIENTED_EDGE ( 'NONE', *, *, #164, .T. ) ;
#97 = CARTESIAN_POINT ( 'NONE',  ( 0.0000000000000000000, 30.00000000000000000, 8.000000000000000000 ) ) ;
#98 = MANIFOLD_SOLID_BREP ( 'Boss.-Extru.1', #222 ) ;
#99 = VERTEX_POINT ( 'NONE', #323 ) ;
#100 = DIRECTION ( 'NONE',  ( -8.540177112501208300E-017, -1.000000000000000000, 0.0000000000000000000 ) ) ;
#101 = COLOUR_RGB ( '',0.7921568627450980000, 0.8196078431372548800, 0.9333333333333333500 ) ;
#102 = FACE_OUTER_BOUND ( 'NONE', #49, .T. ) ;
#103 = DIRECTION ( 'NONE',  ( 4.625929269271465200E-016, 1.000000000000000000, -0.0000000000000000000 ) ) ;
#104 = ORIENTED_EDGE ( 'NONE', *, *, #337, .F. ) ;
#105 = CARTESIAN_POINT ( 'NONE',  ( -640.0000000000000000, 1.232595164407830900E-029, 0.0000000000000000000 ) ) ;
#106 = VECTOR ( 'NONE', #88, 1000.000000000000000 ) ;
#107 = DIRECTION ( 'NONE',  ( 0.0000000000000000000, 0.0000000000000000000, 1.000000000000000000 ) ) ;
#108 = VERTEX_POINT ( 'NONE', #159 ) ;
#109 = DIRECTION ( 'NONE',  ( 0.0000000000000000000, 0.0000000000000000000, 1.000000000000000000 ) ) ;
#110 = ORIENTED_EDGE ( 'NONE', *, *, #62, .F. ) ;
#111 = EDGE_CURVE ( 'NONE', #99, #54, #204, .T. ) ;
#112 = DIRECTION ( 'NONE',  ( -1.000000000000000000, 0.0000000000000000000, 0.0000000000000000000 ) ) ;
#113 = ORIENTED_EDGE ( 'NONE', *, *, #12, .T. ) ;
#114 = CARTESIAN_POINT ( 'NONE',  ( 30.00000000000013900, 29.99999999999998600, 8.000000000000000000 ) ) ;
#115 = DIRECTION ( 'NONE',  ( -0.0000000000000000000, -0.0000000000000000000, -1.000000000000000000 ) ) ;
#116 = CARTESIAN_POINT ( 'NONE',  ( 19.99999999999998900, 349.9999999999999400, 8.000000000000000000 ) ) ;
#117 = ORIENTED_EDGE ( 'NONE', *, *, #126, .T. ) ;
#118 = CARTESIAN_POINT ( 'NONE',  ( -640.0000000000000000, 1.232595164407830900E-029, 0.0000000000000000000 ) ) ;
#119 = ORIENTED_EDGE ( 'NONE', *, *, #313, .F. ) ;
#120 = EDGE_CURVE ( 'NONE', #108, #166, #336, .T. ) ;
#121 = ORIENTED_EDGE ( 'NONE', *, *, #276, .F. ) ;
#122 = VERTEX_POINT ( 'NONE', #16 ) ;
#123 = LINE ( 'NONE', #212, #229 ) ;
#124 = LINE ( 'NONE', #105, #64 ) ;
#125 = SURFACE_STYLE_FILL_AREA ( #91 ) ;
#126 = EDGE_CURVE ( 'NONE', #20, #108, #143, .T. ) ;
#127 = CARTESIAN_POINT ( 'NONE',  ( 19.99999999999998900, 349.9999999999999400, 8.000000000000000000 ) ) ;
#128 = ORIENTED_EDGE ( 'NONE', *, *, #168, .T. ) ;
#129 = CARTESIAN_POINT ( 'NONE',  ( 0.0000000000000000000, 30.00000000000000000, 0.0000000000000000000 ) ) ;
#130 = DIRECTION ( 'NONE',  ( -1.000000000000000000, -2.350270515839545800E-016, 0.0000000000000000000 ) ) ;
#131 = PRESENTATION_LAYER_ASSIGNMENT (  '', '', ( #185 ) ) ;
#132 = CARTESIAN_POINT ( 'NONE',  ( 30.00000000000013900, 29.99999999999998600, 8.000000000000000000 ) ) ;
#133 = LINE ( 'NONE', #259, #263 ) ;
#134 = VECTOR ( 'NONE', #115, 1000.000000000000000 ) ;
#135 = CARTESIAN_POINT ( 'NONE',  ( 0.0000000000000000000, 30.00000000000000000, 8.000000000000000000 ) ) ;
#136 = CYLINDRICAL_SURFACE ( 'NONE', #50, 10.00000000000000700 ) ;
#137 = DIRECTION ( 'NONE',  ( 1.000000000000000000, 0.0000000000000000000, 0.0000000000000000000 ) ) ;
#138 = PRODUCT_DEFINITION ( 'UNKNOWN', '', #218, #303 ) ;
#139 = ORIENTED_EDGE ( 'NONE', *, *, #111, .F. ) ;
#140 = CARTESIAN_POINT ( 'NONE',  ( 19.99999999999998900, 349.9999999999999400, 8.000000000000000000 ) ) ;
#141 = CARTESIAN_POINT ( 'NONE',  ( 30.00000000000013900, 29.99999999999998600, 0.0000000000000000000 ) ) ;
#142 = FACE_OUTER_BOUND ( 'NONE', #247, .T. ) ;
#143 = LINE ( 'NONE', #135, #177 ) ;
#144 = VECTOR ( 'NONE', #30, 1000.000000000000000 ) ;
#145 = AXIS2_PLACEMENT_3D ( 'NONE', #59, #238, #76 ) ;
#146 = VECTOR ( 'NONE', #7, 1000.000000000000000 ) ;
#147 =( LENGTH_UNIT ( ) NAMED_UNIT ( * ) SI_UNIT ( .MILLI., .METRE. ) );
#148 = EDGE_LOOP ( 'NONE', ( #233, #84, #279, #235, #269, #250, #338, #110 ) ) ;
#149 = PRODUCT_RELATED_PRODUCT_CATEGORY ( 'part', '', ( #163 ) ) ;
#150 = APPLICATION_PROTOCOL_DEFINITION ( 'draft international standard', 'automotive_design', 1998, #205 ) ;
#151 = LINE ( 'NONE', #33, #275 ) ;
#152 = ORIENTED_EDGE ( 'NONE', *, *, #23, .T. ) ;
#153 = SURFACE_STYLE_FILL_AREA ( #52 ) ;
#154 = DIRECTION ( 'NONE',  ( -1.000000000000000000, 4.625929269271465200E-016, 0.0000000000000000000 ) ) ;
#155 = DIRECTION ( 'NONE',  ( 0.0000000000000000000, 0.0000000000000000000, 1.000000000000000000 ) ) ;
#156 = ORIENTED_EDGE ( 'NONE', *, *, #181, .F. ) ;
#157 = DIRECTION ( 'NONE',  ( -0.0000000000000000000, -0.0000000000000000000, -1.000000000000000000 ) ) ;
#158 = VECTOR ( 'NONE', #234, 1000.000000000000000 ) ;
#159 = CARTESIAN_POINT ( 'NONE',  ( 30.00000000000013900, 29.99999999999998600, 8.000000000000000000 ) ) ;
#160 = AXIS2_PLACEMENT_3D ( 'NONE', #116, #100, #315 ) ;
#161 = ADVANCED_FACE ( 'NONE', ( #319 ), #227, .F. ) ;
#162 = EDGE_LOOP ( 'NONE', ( #253, #258, #228, #332 ) ) ;
#163 = PRODUCT ( 'plexis 2', 'plexis 2', '', ( #179 ) ) ;
#164 = EDGE_CURVE ( 'NONE', #54, #226, #248, .T. ) ;
#165 = DIRECTION ( 'NONE',  ( 1.000000000000000000, 0.0000000000000000000, 0.0000000000000000000 ) ) ;
#166 = VERTEX_POINT ( 'NONE', #141 ) ;
#167 = DIRECTION ( 'NONE',  ( -2.350270515839545800E-016, 1.000000000000000000, 0.0000000000000000000 ) ) ;
#168 = EDGE_CURVE ( 'NONE', #122, #99, #72, .T. ) ;
#169 = EDGE_LOOP ( 'NONE', ( #262, #93, #311, #90 ) ) ;
#170 = DIRECTION ( 'NONE',  ( 0.0000000000000000000, 0.0000000000000000000, 1.000000000000000000 ) ) ;
#171 = FILL_AREA_STYLE_COLOUR ( '', #101 ) ;
#172 = VERTEX_POINT ( 'NONE', #299 ) ;
#173 = SURFACE_SIDE_STYLE ('',( #153 ) ) ;
#174 = LINE ( 'NONE', #268, #180 ) ;
#175 = MECHANICAL_DESIGN_GEOMETRIC_PRESENTATION_REPRESENTATION (  '', ( #232 ), #8 ) ;
#176 = EDGE_LOOP ( 'NONE', ( #200, #28, #324, #5 ) ) ;
#177 = VECTOR ( 'NONE', #325, 1000.000000000000000 ) ;
#178 = EDGE_LOOP ( 'NONE', ( #281, #289, #117, #230, #74, #128, #22, #96 ) ) ;
#179 = PRODUCT_CONTEXT ( 'NONE', #205, 'mechanical' ) ;
#180 = VECTOR ( 'NONE', #167, 1000.000000000000000 ) ;
#181 = EDGE_CURVE ( 'NONE', #172, #122, #274, .T. ) ;
#182 = DIRECTION ( 'NONE',  ( 1.000000000000000000, -4.625929269271465200E-016, 0.0000000000000000000 ) ) ;
#183 = VERTEX_POINT ( 'NONE', #193 ) ;
#184 = CARTESIAN_POINT ( 'NONE',  ( -640.0000000000000000, 1.232595164407830900E-029, 8.000000000000000000 ) ) ;
#185 = STYLED_ITEM ( 'NONE', ( #86 ), #95 ) ;
#186 = CARTESIAN_POINT ( 'NONE',  ( 20.00000000000006000, 339.9999999999998900, 0.0000000000000000000 ) ) ;
#187 = CARTESIAN_POINT ( 'NONE',  ( 0.0000000000000000000, 0.0000000000000000000, 0.0000000000000000000 ) ) ;
#188 = ORIENTED_EDGE ( 'NONE', *, *, #120, .T. ) ;
#189 = PLANE ( 'NONE',  #13 ) ;
#190 = CARTESIAN_POINT ( 'NONE',  ( -639.9999999999998900, 339.9999999999998900, 8.000000000000000000 ) ) ;
#191 = EDGE_LOOP ( 'NONE', ( #152, #61, #119, #188 ) ) ;
#192 = ADVANCED_FACE ( 'NONE', ( #15 ), #69, .F. ) ;
#193 = CARTESIAN_POINT ( 'NONE',  ( 0.0000000000000000000, 30.00000000000000000, 0.0000000000000000000 ) ) ;
#194 = DIRECTION ( 'NONE',  ( 0.0000000000000000000, 0.0000000000000000000, 1.000000000000000000 ) ) ;
#195 = ORIENTED_EDGE ( 'NONE', *, *, #62, .T. ) ;
#196 = LINE ( 'NONE', #77, #41 ) ;
#197 = APPLICATION_CONTEXT ( 'automotive_design' ) ;
#198 = FACE_OUTER_BOUND ( 'NONE', #176, .T. ) ;
#199 = FACE_OUTER_BOUND ( 'NONE', #57, .T. ) ;
#200 = ORIENTED_EDGE ( 'NONE', *, *, #307, .T. ) ;
#201 =( GEOMETRIC_REPRESENTATION_CONTEXT ( 3 ) GLOBAL_UNCERTAINTY_ASSIGNED_CONTEXT ( ( #256 ) ) GLOBAL_UNIT_ASSIGNED_CONTEXT ( ( #310, #312, #24 ) ) REPRESENTATION_CONTEXT ( 'NONE', 'WORKASPACE' ) );
#202 = DIRECTION ( 'NONE',  ( 0.0000000000000000000, 0.0000000000000000000, 1.000000000000000000 ) ) ;
#203 = FACE_OUTER_BOUND ( 'NONE', #148, .T. ) ;
#204 = CIRCLE ( 'NONE', #297, 10.00000000000000900 ) ;
#205 = APPLICATION_CONTEXT ( 'automotive_design' ) ;
#206 = ORIENTED_EDGE ( 'NONE', *, *, #337, .T. ) ;
#207 = CARTESIAN_POINT ( 'NONE',  ( -629.9999999999997700, 350.0000000000000000, 8.000000000000000000 ) ) ;
#208 = ORIENTED_EDGE ( 'NONE', *, *, #126, .F. ) ;
#209 =( GEOMETRIC_REPRESENTATION_CONTEXT ( 3 ) GLOBAL_UNCERTAINTY_ASSIGNED_CONTEXT ( ( #66 ) ) GLOBAL_UNIT_ASSIGNED_CONTEXT ( ( #147, #53, #280 ) ) REPRESENTATION_CONTEXT ( 'NONE', 'WORKASPACE' ) );
#210 = PLANE ( 'NONE',  #19 ) ;
#211 = PLANE ( 'NONE',  #145 ) ;
#212 = CARTESIAN_POINT ( 'NONE',  ( 0.0000000000000000000, 0.0000000000000000000, 8.000000000000000000 ) ) ;
#213 = VECTOR ( 'NONE', #29, 1000.000000000000000 ) ;
#214 = VECTOR ( 'NONE', #79, 1000.000000000000000 ) ;
#215 = FILL_AREA_STYLE_COLOUR ( '', #2 ) ;
#216 = LINE ( 'NONE', #207, #158 ) ;
#217 = CIRCLE ( 'NONE', #277, 10.00000000000000900 ) ;
#218 = PRODUCT_DEFINITION_FORMATION_WITH_SPECIFIED_SOURCE ( 'ANY', '', #163, .NOT_KNOWN. ) ;
#219 = LINE ( 'NONE', #127, #146 ) ;
#220 = CARTESIAN_POINT ( 'NONE',  ( -629.9999999999997700, 350.0000000000000000, 0.0000000000000000000 ) ) ;
#221 = ADVANCED_FACE ( 'NONE', ( #203 ), #71, .F. ) ;
#222 = CLOSED_SHELL ( 'NONE', ( #87, #161, #298, #326, #35, #192, #60, #321, #267, #221 ) ) ;
#223 = EDGE_CURVE ( 'NONE', #226, #335, #133, .T. ) ;
#224 = SURFACE_SIDE_STYLE ('',( #125 ) ) ;
#225 = CARTESIAN_POINT ( 'NONE',  ( 20.00000000000006000, 339.9999999999998900, 8.000000000000000000 ) ) ;
#226 = VERTEX_POINT ( 'NONE', #184 ) ;
#227 = PLANE ( 'NONE',  #327 ) ;
#228 = ORIENTED_EDGE ( 'NONE', *, *, #168, .F. ) ;
#229 = VECTOR ( 'NONE', #260, 1000.000000000000000 ) ;
#230 = ORIENTED_EDGE ( 'NONE', *, *, #313, .T. ) ;
#231 = FACE_OUTER_BOUND ( 'NONE', #178, .T. ) ;
#232 = STYLED_ITEM ( 'NONE', ( #36 ), #98 ) ;
#233 = ORIENTED_EDGE ( 'NONE', *, *, #334, .F. ) ;
#234 = DIRECTION ( 'NONE',  ( -0.0000000000000000000, -0.0000000000000000000, -1.000000000000000000 ) ) ;
#235 = ORIENTED_EDGE ( 'NONE', *, *, #283, .F. ) ;
#236 = EDGE_CURVE ( 'NONE', #226, #11, #278, .T. ) ;
#237 = DIRECTION ( 'NONE',  ( -2.350270515839545800E-016, 1.000000000000000000, 0.0000000000000000000 ) ) ;
#238 = DIRECTION ( 'NONE',  ( 1.000000000000000000, -3.265361837132814100E-016, 0.0000000000000000000 ) ) ;
#239 = ORIENTED_EDGE ( 'NONE', *, *, #316, .T. ) ;
#240 = CARTESIAN_POINT ( 'NONE',  ( 30.00000000000006400, 339.9999999999998900, 0.0000000000000000000 ) ) ;
#241 = CARTESIAN_POINT ( 'NONE',  ( 0.0000000000000000000, 30.00000000000000000, 8.000000000000000000 ) ) ;
#242 = ORIENTED_EDGE ( 'NONE', *, *, #120, .F. ) ;
#243 = DIRECTION ( 'NONE',  ( -0.0000000000000000000, -0.0000000000000000000, -1.000000000000000000 ) ) ;
#244 = VERTEX_POINT ( 'NONE', #240 ) ;
#245 = AXIS2_PLACEMENT_3D ( 'NONE', #322, #103, #154 ) ;
#246 = SURFACE_STYLE_USAGE ( .BOTH. , #224 ) ;
#247 = EDGE_LOOP ( 'NONE', ( #314, #242, #208, #206 ) ) ;
#248 = LINE ( 'NONE', #302, #106 ) ;
#249 = DIRECTION ( 'NONE',  ( 1.000000000000000000, 0.0000000000000000000, 0.0000000000000000000 ) ) ;
#250 = ORIENTED_EDGE ( 'NONE', *, *, #23, .F. ) ;
#251 = VERTEX_POINT ( 'NONE', #187 ) ;
#252 = SURFACE_STYLE_USAGE ( .BOTH. , #173 ) ;
#253 = ORIENTED_EDGE ( 'NONE', *, *, #283, .T. ) ;
#254 = VECTOR ( 'NONE', #38, 1000.000000000000000 ) ;
#255 = VECTOR ( 'NONE', #237, 1000.000000000000000 ) ;
#256 = UNCERTAINTY_MEASURE_WITH_UNIT (LENGTH_MEASURE( 1.000000000000000100E-005 ), #310, 'distance_accuracy_value', 'NONE');
#257 = EDGE_CURVE ( 'NONE', #11, #20, #196, .T. ) ;
#258 = ORIENTED_EDGE ( 'NONE', *, *, #316, .F. ) ;
#259 = CARTESIAN_POINT ( 'NONE',  ( -640.0000000000000000, 1.232595164407830900E-029, 8.000000000000000000 ) ) ;
#260 = DIRECTION ( 'NONE',  ( -0.0000000000000000000, -0.0000000000000000000, -1.000000000000000000 ) ) ;
#261 = CARTESIAN_POINT ( 'NONE',  ( 20.00000000000006000, 339.9999999999998900, 8.000000000000000000 ) ) ;
#262 = ORIENTED_EDGE ( 'NONE', *, *, #334, .T. ) ;
#263 = VECTOR ( 'NONE', #157, 1000.000000000000000 ) ;
#264 = CARTESIAN_POINT ( 'NONE',  ( -639.9999999999998900, 339.9999999999998900, 0.0000000000000000000 ) ) ;
#265 = CIRCLE ( 'NONE', #92, 10.00000000000000900 ) ;
#266 = CARTESIAN_POINT ( 'NONE',  ( 20.00000000000006000, 339.9999999999998900, 0.0000000000000000000 ) ) ;
#267 = ADVANCED_FACE ( 'NONE', ( #231 ), #210, .T. ) ;
#268 = CARTESIAN_POINT ( 'NONE',  ( 30.00000000000013900, 29.99999999999998600, 0.0000000000000000000 ) ) ;
#269 = ORIENTED_EDGE ( 'NONE', *, *, #94, .F. ) ;
#270 = EDGE_CURVE ( 'NONE', #11, #251, #123, .T. ) ;
#271 = DIRECTION ( 'NONE',  ( -0.0000000000000000000, -0.0000000000000000000, -1.000000000000000000 ) ) ;
#272 =( NAMED_UNIT ( * ) PLANE_ANGLE_UNIT ( ) SI_UNIT ( $, .RADIAN. ) );
#273 =( LENGTH_UNIT ( ) NAMED_UNIT ( * ) SI_UNIT ( .MILLI., .METRE. ) );
#274 = CIRCLE ( 'NONE', #288, 10.00000000000000900 ) ;
#275 = VECTOR ( 'NONE', #243, 1000.000000000000000 ) ;
#276 = EDGE_CURVE ( 'NONE', #122, #34, #219, .T. ) ;
#277 = AXIS2_PLACEMENT_3D ( 'NONE', #83, #107, #165 ) ;
#278 = LINE ( 'NONE', #14, #213 ) ;
#279 = ORIENTED_EDGE ( 'NONE', *, *, #12, .F. ) ;
#280 =( NAMED_UNIT ( * ) SI_UNIT ( $, .STERADIAN. ) SOLID_ANGLE_UNIT ( ) );
#281 = ORIENTED_EDGE ( 'NONE', *, *, #236, .T. ) ;
#282 = DIRECTION ( 'NONE',  ( 0.0000000000000000000, 0.0000000000000000000, 1.000000000000000000 ) ) ;
#283 = EDGE_CURVE ( 'NONE', #34, #39, #89, .T. ) ;
#284 = DIRECTION ( 'NONE',  ( -1.000000000000000000, 8.540177112501207100E-017, 0.0000000000000000000 ) ) ;
#285 = UNCERTAINTY_MEASURE_WITH_UNIT (LENGTH_MEASURE( 1.000000000000000100E-005 ), #273, 'distance_accuracy_value', 'NONE');
#286 = PLANE ( 'NONE',  #75 ) ;
#287 = DIRECTION ( 'NONE',  ( 0.0000000000000000000, 1.000000000000000000, 0.0000000000000000000 ) ) ;
#288 = AXIS2_PLACEMENT_3D ( 'NONE', #225, #43, #333 ) ;
#289 = ORIENTED_EDGE ( 'NONE', *, *, #257, .T. ) ;
#290 = PRODUCT_DEFINITION_SHAPE ( 'NONE', 'NONE',  #138 ) ;
#291 = CARTESIAN_POINT ( 'NONE',  ( 30.00000000000013900, 29.99999999999998600, 8.000000000000000000 ) ) ;
#292 = DIRECTION ( 'NONE',  ( 1.925929944387235900E-032, 1.000000000000000000, -0.0000000000000000000 ) ) ;
#293 = CARTESIAN_POINT ( 'NONE',  ( -640.0000000000000000, 1.232595164407830900E-029, 8.000000000000000000 ) ) ;
#294 = EDGE_CURVE ( 'NONE', #183, #166, #25, .T. ) ;
#295 = ORIENTED_EDGE ( 'NONE', *, *, #94, .T. ) ;
#296 = CARTESIAN_POINT ( 'NONE',  ( -629.9999999999998900, 339.9999999999999400, 8.000000000000000000 ) ) ;
#297 = AXIS2_PLACEMENT_3D ( 'NONE', #44, #170, #249 ) ;
#298 = ADVANCED_FACE ( 'NONE', ( #142 ), #58, .F. ) ;
#299 = CARTESIAN_POINT ( 'NONE',  ( 30.00000000000006400, 339.9999999999998900, 8.000000000000000000 ) ) ;
#300 = EDGE_LOOP ( 'NONE', ( #195, #104, #51, #317 ) ) ;
#301 = CARTESIAN_POINT ( 'NONE',  ( 0.0000000000000000000, 0.0000000000000000000, 8.000000000000000000 ) ) ;
#302 = CARTESIAN_POINT ( 'NONE',  ( -639.9999999999998900, 339.9999999999998900, 8.000000000000000000 ) ) ;
#303 = PRODUCT_DEFINITION_CONTEXT ( 'detailed design', #197, 'design' ) ;
#304 = ORIENTED_EDGE ( 'NONE', *, *, #26, .T. ) ;
#305 = DIRECTION ( 'NONE',  ( 1.000000000000000000, 0.0000000000000000000, 0.0000000000000000000 ) ) ;
#306 = LINE ( 'NONE', #32, #82 ) ;
#307 = EDGE_CURVE ( 'NONE', #46, #335, #329, .T. ) ;
#308 = ORIENTED_EDGE ( 'NONE', *, *, #65, .F. ) ;
#309 = VECTOR ( 'NONE', #182, 1000.000000000000000 ) ;
#310 =( LENGTH_UNIT ( ) NAMED_UNIT ( * ) SI_UNIT ( .MILLI., .METRE. ) );
#311 = ORIENTED_EDGE ( 'NONE', *, *, #236, .F. ) ;
#312 =( NAMED_UNIT ( * ) PLANE_ANGLE_UNIT ( ) SI_UNIT ( $, .RADIAN. ) );
#313 = EDGE_CURVE ( 'NONE', #108, #172, #10, .T. ) ;
#314 = ORIENTED_EDGE ( 'NONE', *, *, #294, .T. ) ;
#315 = DIRECTION ( 'NONE',  ( 1.000000000000000000, -8.540177112501208300E-017, 0.0000000000000000000 ) ) ;
#316 = EDGE_CURVE ( 'NONE', #99, #39, #216, .T. ) ;
#317 = ORIENTED_EDGE ( 'NONE', *, *, #270, .T. ) ;
#318 = DIRECTION ( 'NONE',  ( 2.350270515839545800E-016, -1.000000000000000000, 0.0000000000000000000 ) ) ;
#319 = FACE_OUTER_BOUND ( 'NONE', #300, .T. ) ;
#320 = DIRECTION ( 'NONE',  ( 1.000000000000000000, -1.925929944387235900E-032, 0.0000000000000000000 ) ) ;
#321 = ADVANCED_FACE ( 'NONE', ( #198 ), #211, .F. ) ;
#322 = CARTESIAN_POINT ( 'NONE',  ( 0.0000000000000000000, 30.00000000000000000, 8.000000000000000000 ) ) ;
#323 = CARTESIAN_POINT ( 'NONE',  ( -629.9999999999997700, 350.0000000000000000, 8.000000000000000000 ) ) ;
#324 = ORIENTED_EDGE ( 'NONE', *, *, #164, .F. ) ;
#325 = DIRECTION ( 'NONE',  ( 1.000000000000000000, -4.625929269271465200E-016, 0.0000000000000000000 ) ) ;
#326 = ADVANCED_FACE ( 'NONE', ( #31 ), #286, .F. ) ;
#327 = AXIS2_PLACEMENT_3D ( 'NONE', #301, #40, #194 ) ;
#328 = SHAPE_DEFINITION_REPRESENTATION ( #290, #95 ) ;
#329 = LINE ( 'NONE', #4, #214 ) ;
#330 = CARTESIAN_POINT ( 'NONE',  ( 0.0000000000000000000, 0.0000000000000000000, 8.000000000000000000 ) ) ;
#331 = DIRECTION ( 'NONE',  ( 0.0000000000000000000, 1.000000000000000000, 0.0000000000000000000 ) ) ;
#332 = ORIENTED_EDGE ( 'NONE', *, *, #276, .T. ) ;
#333 = DIRECTION ( 'NONE',  ( 1.000000000000000000, 0.0000000000000000000, 0.0000000000000000000 ) ) ;
#334 = EDGE_CURVE ( 'NONE', #335, #251, #124, .T. ) ;
#335 = VERTEX_POINT ( 'NONE', #118 ) ;
#336 = LINE ( 'NONE', #114, #134 ) ;
#337 = EDGE_CURVE ( 'NONE', #20, #183, #27, .T. ) ;
#338 = ORIENTED_EDGE ( 'NONE', *, *, #294, .F. ) ;
ENDSEC;
END-ISO-10303-21;
