ISO-10303-21;
HEADER;
FILE_DESCRIPTION (( 'STEP AP203' ),
    '1' );
FILE_NAME ('IP68-POD-MAG2-1.STEP',
    '2021-11-26T11:36:11',
    ( '' ),
    ( '' ),
    'SwSTEP 2.0',
    'SolidWorks 2016',
    '' );
FILE_SCHEMA (( 'CONFIG_CONTROL_DESIGN' ));
ENDSEC;

DATA;
#1 = CC_DESIGN_PERSON_AND_ORGANIZATION_ASSIGNMENT ( #260, #120, ( #51 ) ) ;
#2 = ORIENTED_EDGE ( 'NONE', *, *, #62, .T. ) ;
#3 = APPROVAL_ROLE ( '' ) ;
#4 = EDGE_CURVE ( 'NONE', #287, #148, #220, .T. ) ;
#5 = LOCAL_TIME ( 12, 36, 11.00000000000000000, #192 ) ;
#6 = CC_DESIGN_DATE_AND_TIME_ASSIGNMENT ( #167, #21, ( #94 ) ) ;
#7 = ORIENTED_EDGE ( 'NONE', *, *, #180, .F. ) ;
#8 = DIRECTION ( 'NONE',  ( 0.0000000000000000000, 1.000000000000000000, 0.0000000000000000000 ) ) ;
#9 = FACE_OUTER_BOUND ( 'NONE', #191, .T. ) ;
#10 = VERTEX_POINT ( 'NONE', #286 ) ;
#11 = DESIGN_CONTEXT ( 'detailed design', #163, 'design' ) ;
#12 = CARTESIAN_POINT ( 'NONE',  ( -25.00000000000000400, 23.00000000000000000, 2.500000000000000000 ) ) ;
#13 = VECTOR ( 'NONE', #111, 1000.000000000000000 ) ;
#14 = VERTEX_POINT ( 'NONE', #259 ) ;
#15 = CARTESIAN_POINT ( 'NONE',  ( -25.00000000000000400, -25.00000000000000000, 2.500000000000000000 ) ) ;
#16 = DIRECTION ( 'NONE',  ( 0.0000000000000000000, 1.000000000000000000, 0.0000000000000000000 ) ) ;
#17 = ORIENTED_EDGE ( 'NONE', *, *, #302, .F. ) ;
#18 = APPROVAL ( #67, 'UNSPECIFIED' ) ;
#19 = DIRECTION ( 'NONE',  ( 1.000000000000000000, 0.0000000000000000000, 0.0000000000000000000 ) ) ;
#20 = MANIFOLD_SOLID_BREP ( 'Chanfrein1', #193 ) ;
#21 = DATE_TIME_ROLE ( 'creation_date' ) ;
#22 = LOCAL_TIME ( 12, 36, 11.00000000000000000, #173 ) ;
#23 = VERTEX_POINT ( 'NONE', #257 ) ;
#24 = DIRECTION ( 'NONE',  ( -1.000000000000000000, 0.0000000000000000000, -0.0000000000000000000 ) ) ;
#25 = DIRECTION ( 'NONE',  ( 0.0000000000000000000, 0.0000000000000000000, -1.000000000000000000 ) ) ;
#26 = AXIS2_PLACEMENT_3D ( 'NONE', #209, #188, #185 ) ;
#27 = VECTOR ( 'NONE', #289, 1000.000000000000000 ) ;
#28 = FACE_OUTER_BOUND ( 'NONE', #136, .T. ) ;
#29 = ORIENTED_EDGE ( 'NONE', *, *, #158, .F. ) ;
#30 = DIRECTION ( 'NONE',  ( 1.000000000000000000, 0.0000000000000000000, 0.0000000000000000000 ) ) ;
#31 = EDGE_CURVE ( 'NONE', #14, #267, #50, .T. ) ;
#32 = ORGANIZATION ( 'UNSPECIFIED', 'UNSPECIFIED', '' ) ;
#33 = ORIENTED_EDGE ( 'NONE', *, *, #294, .T. ) ;
#34 = DIRECTION ( 'NONE',  ( -1.000000000000000000, 0.0000000000000000000, 0.0000000000000000000 ) ) ;
#35 = DIRECTION ( 'NONE',  ( -1.000000000000000000, -0.0000000000000000000, -0.0000000000000000000 ) ) ;
#36 = VECTOR ( 'NONE', #179, 1000.000000000000000 ) ;
#37 = ORIENTED_EDGE ( 'NONE', *, *, #269, .F. ) ;
#38 = DIRECTION ( 'NONE',  ( -1.000000000000000000, 0.0000000000000000000, -0.0000000000000000000 ) ) ;
#39 = PRODUCT ( 'IP68-POD-MAG2-1', 'IP68-POD-MAG2-1', '', ( #229 ) ) ;
#40 = PLANE ( 'NONE',  #81 ) ;
#41 = APPROVAL_ROLE ( '' ) ;
#42 = DIRECTION ( 'NONE',  ( -0.0000000000000000000, -0.7071067811865487900, -0.7071067811865463500 ) ) ;
#43 = DIRECTION ( 'NONE',  ( 0.0000000000000000000, 0.0000000000000000000, 1.000000000000000000 ) ) ;
#44 = CARTESIAN_POINT ( 'NONE',  ( 0.0000000000000000000, 0.0000000000000000000, -2.500000000000000000 ) ) ;
#45 = EDGE_CURVE ( 'NONE', #148, #181, #227, .T. ) ;
#46 = COORDINATED_UNIVERSAL_TIME_OFFSET ( 1, 0, .AHEAD. ) ;
#47 = VECTOR ( 'NONE', #239, 1000.000000000000000 ) ;
#48 = AXIS2_PLACEMENT_3D ( 'NONE', #225, #43, #91 ) ;
#49 = APPROVAL_DATE_TIME ( #101, #80 ) ;
#50 = LINE ( 'NONE', #237, #171 ) ;
#51 = PRODUCT_DEFINITION_FORMATION_WITH_SPECIFIED_SOURCE ( 'ANY', '', #39, .NOT_KNOWN. ) ;
#52 = PERSON_AND_ORGANIZATION ( #214, #32 ) ;
#53 = APPROVAL ( #250, 'UNSPECIFIED' ) ;
#54 = PERSON_AND_ORGANIZATION ( #214, #32 ) ;
#55 = ORIENTED_EDGE ( 'NONE', *, *, #235, .F. ) ;
#56 = COORDINATED_UNIVERSAL_TIME_OFFSET ( 1, 0, .AHEAD. ) ;
#57 = ORIENTED_EDGE ( 'NONE', *, *, #189, .F. ) ;
#58 = CALENDAR_DATE ( 2021, 26, 11 ) ;
#59 = ORIENTED_EDGE ( 'NONE', *, *, #153, .F. ) ;
#60 = CARTESIAN_POINT ( 'NONE',  ( 24.99999999999999600, 25.00000000000000000, 0.4999999999999913400 ) ) ;
#61 = ADVANCED_BREP_SHAPE_REPRESENTATION ( 'IP68-POD-MAG2-1', ( #20, #48 ), #274 ) ;
#62 = EDGE_CURVE ( 'NONE', #202, #181, #103, .T. ) ;
#63 = CARTESIAN_POINT ( 'NONE',  ( -25.00000000000000400, 25.00000000000000000, -2.500000000000000000 ) ) ;
#64 = DIRECTION ( 'NONE',  ( 1.000000000000000000, 0.0000000000000000000, 0.0000000000000000000 ) ) ;
#65 = ORIENTED_EDGE ( 'NONE', *, *, #189, .T. ) ;
#66 = CC_DESIGN_DATE_AND_TIME_ASSIGNMENT ( #175, #299, ( #183 ) ) ;
#67 = APPROVAL_STATUS ( 'not_yet_approved' ) ;
#68 = APPROVAL_ROLE ( '' ) ;
#69 = PERSON_AND_ORGANIZATION ( #214, #32 ) ;
#70 =( LENGTH_UNIT ( ) NAMED_UNIT ( * ) SI_UNIT ( .MILLI., .METRE. ) );
#71 = VERTEX_POINT ( 'NONE', #283 ) ;
#72 = CARTESIAN_POINT ( 'NONE',  ( 0.0000000000000000000, 23.00000000000000000, 2.500000000000000000 ) ) ;
#73 = VECTOR ( 'NONE', #90, 1000.000000000000000 ) ;
#74 = ADVANCED_FACE ( 'NONE', ( #28 ), #258, .F. ) ;
#75 = ORIENTED_EDGE ( 'NONE', *, *, #149, .T. ) ;
#76 = LINE ( 'NONE', #295, #36 ) ;
#77 = FACE_OUTER_BOUND ( 'NONE', #255, .T. ) ;
#78 = ORIENTED_EDGE ( 'NONE', *, *, #153, .T. ) ;
#79 = CARTESIAN_POINT ( 'NONE',  ( 24.99999999999999600, 23.00000000000000000, 2.500000000000000000 ) ) ;
#80 = APPROVAL ( #122, 'UNSPECIFIED' ) ;
#81 = AXIS2_PLACEMENT_3D ( 'NONE', #203, #137, #161 ) ;
#82 = DIRECTION ( 'NONE',  ( -0.0000000000000000000, -0.7071067811865463500, 0.7071067811865487900 ) ) ;
#83 = APPROVAL_PERSON_ORGANIZATION ( #54, #18, #41 ) ;
#84 = EDGE_CURVE ( 'NONE', #303, #10, #276, .T. ) ;
#85 = CARTESIAN_POINT ( 'NONE',  ( -25.00000000000000400, -25.00000000000000000, 0.4999999999999913400 ) ) ;
#86 = PLANE ( 'NONE',  #89 ) ;
#87 = CARTESIAN_POINT ( 'NONE',  ( 24.99999999999999600, -23.00000000000000000, 2.500000000000000000 ) ) ;
#88 = CARTESIAN_POINT ( 'NONE',  ( -25.00000000000000400, 25.00000000000000000, 2.500000000000000000 ) ) ;
#89 = AXIS2_PLACEMENT_3D ( 'NONE', #242, #116, #38 ) ;
#90 = DIRECTION ( 'NONE',  ( -0.0000000000000000000, 0.7071067811865463500, -0.7071067811865487900 ) ) ;
#91 = DIRECTION ( 'NONE',  ( 1.000000000000000000, 0.0000000000000000000, 0.0000000000000000000 ) ) ;
#92 = PLANE ( 'NONE',  #238 ) ;
#93 = PERSON_AND_ORGANIZATION ( #214, #32 ) ;
#94 = PRODUCT_DEFINITION ( 'UNKNOWN', '', #51, #11 ) ;
#95 = PERSON_AND_ORGANIZATION_ROLE ( 'design_owner' ) ;
#96 = PLANE ( 'NONE',  #26 ) ;
#97 = LINE ( 'NONE', #135, #27 ) ;
#98 = EDGE_LOOP ( 'NONE', ( #129, #57, #55, #17 ) ) ;
#99 = ADVANCED_FACE ( 'NONE', ( #102 ), #86, .F. ) ;
#100 = CC_DESIGN_APPROVAL ( #80, ( #183 ) ) ;
#101 = DATE_AND_TIME ( #147, #130 ) ;
#102 = FACE_OUTER_BOUND ( 'NONE', #126, .T. ) ;
#103 = LINE ( 'NONE', #152, #213 ) ;
#104 = AXIS2_PLACEMENT_3D ( 'NONE', #15, #176, #198 ) ;
#105 = CC_DESIGN_APPROVAL ( #53, ( #51 ) ) ;
#106 = APPROVAL_PERSON_ORGANIZATION ( #127, #53, #68 ) ;
#107 = LINE ( 'NONE', #275, #159 ) ;
#108 = ORIENTED_EDGE ( 'NONE', *, *, #199, .T. ) ;
#109 = ORIENTED_EDGE ( 'NONE', *, *, #4, .T. ) ;
#110 = CC_DESIGN_PERSON_AND_ORGANIZATION_ASSIGNMENT ( #69, #165, ( #94 ) ) ;
#111 = DIRECTION ( 'NONE',  ( -0.0000000000000000000, -0.0000000000000000000, -1.000000000000000000 ) ) ;
#112 = CARTESIAN_POINT ( 'NONE',  ( -25.00000000000000400, 25.00000000000000000, -2.500000000000000000 ) ) ;
#113 = LINE ( 'NONE', #88, #186 ) ;
#114 = EDGE_CURVE ( 'NONE', #287, #223, #113, .T. ) ;
#115 = PLANE ( 'NONE',  #222 ) ;
#116 = DIRECTION ( 'NONE',  ( 0.0000000000000000000, 0.0000000000000000000, -1.000000000000000000 ) ) ;
#117 = DIRECTION ( 'NONE',  ( -1.000000000000000000, 0.0000000000000000000, 0.0000000000000000000 ) ) ;
#118 = ORIENTED_EDGE ( 'NONE', *, *, #84, .T. ) ;
#119 =( NAMED_UNIT ( * ) PLANE_ANGLE_UNIT ( ) SI_UNIT ( $, .RADIAN. ) );
#120 = PERSON_AND_ORGANIZATION_ROLE ( 'design_supplier' ) ;
#121 = EDGE_CURVE ( 'NONE', #10, #223, #256, .T. ) ;
#122 = APPROVAL_STATUS ( 'not_yet_approved' ) ;
#123 = LOCAL_TIME ( 12, 36, 11.00000000000000000, #56 ) ;
#124 = VECTOR ( 'NONE', #248, 1000.000000000000000 ) ;
#125 = ORIENTED_EDGE ( 'NONE', *, *, #302, .T. ) ;
#126 = EDGE_LOOP ( 'NONE', ( #33, #125, #2, #245 ) ) ;
#127 = PERSON_AND_ORGANIZATION ( #214, #32 ) ;
#128 = FACE_OUTER_BOUND ( 'NONE', #98, .T. ) ;
#129 = ORIENTED_EDGE ( 'NONE', *, *, #31, .F. ) ;
#130 = LOCAL_TIME ( 12, 36, 11.00000000000000000, #46 ) ;
#131 = CARTESIAN_POINT ( 'NONE',  ( -25.00000000000000400, 25.00000000000000000, 0.4999999999999913400 ) ) ;
#132 = ORIENTED_EDGE ( 'NONE', *, *, #180, .T. ) ;
#133 = AXIS2_PLACEMENT_3D ( 'NONE', #195, #34, #293 ) ;
#134 = DIRECTION ( 'NONE',  ( -0.0000000000000000000, 0.7071067811865463500, 0.7071067811865487900 ) ) ;
#135 = CARTESIAN_POINT ( 'NONE',  ( -25.00000000000000400, -25.00000000000000000, 2.500000000000000000 ) ) ;
#136 = EDGE_LOOP ( 'NONE', ( #232, #187, #211, #118, #241, #178 ) ) ;
#137 = DIRECTION ( 'NONE',  ( 0.0000000000000000000, 0.7071067811865487900, -0.7071067811865463500 ) ) ;
#138 = DIRECTION ( 'NONE',  ( 0.0000000000000000000, -0.0000000000000000000, -1.000000000000000000 ) ) ;
#139 = LINE ( 'NONE', #12, #73 ) ;
#140 = DIRECTION ( 'NONE',  ( -1.000000000000000000, 0.0000000000000000000, 0.0000000000000000000 ) ) ;
#141 = DATE_AND_TIME ( #58, #123 ) ;
#142 = SHAPE_DEFINITION_REPRESENTATION ( #221, #61 ) ;
#143 = ORIENTED_EDGE ( 'NONE', *, *, #4, .F. ) ;
#144 = UNCERTAINTY_MEASURE_WITH_UNIT (LENGTH_MEASURE( 1.000000000000000100E-005 ), #70, 'distance_accuracy_value', 'NONE');
#145 = EDGE_LOOP ( 'NONE', ( #217, #271, #151, #132, #297, #160 ) ) ;
#146 = CC_DESIGN_SECURITY_CLASSIFICATION ( #183, ( #51 ) ) ;
#147 = CALENDAR_DATE ( 2021, 26, 11 ) ;
#148 = VERTEX_POINT ( 'NONE', #60 ) ;
#149 = EDGE_CURVE ( 'NONE', #14, #23, #97, .T. ) ;
#150 = LINE ( 'NONE', #270, #124 ) ;
#151 = ORIENTED_EDGE ( 'NONE', *, *, #294, .F. ) ;
#152 = CARTESIAN_POINT ( 'NONE',  ( 24.99999999999999600, -25.00000000000000000, 2.500000000000000000 ) ) ;
#153 = EDGE_CURVE ( 'NONE', #23, #303, #244, .T. ) ;
#154 = CC_DESIGN_APPROVAL ( #18, ( #94 ) ) ;
#155 = APPROVAL_PERSON_ORGANIZATION ( #226, #80, #3 ) ;
#156 = DIRECTION ( 'NONE',  ( -0.0000000000000000000, -0.0000000000000000000, -1.000000000000000000 ) ) ;
#157 = PLANE ( 'NONE',  #104 ) ;
#158 = EDGE_CURVE ( 'NONE', #233, #303, #76, .T. ) ;
#159 = VECTOR ( 'NONE', #206, 1000.000000000000000 ) ;
#160 = ORIENTED_EDGE ( 'NONE', *, *, #269, .T. ) ;
#161 = DIRECTION ( 'NONE',  ( 1.000000000000000000, -0.0000000000000000000, 0.0000000000000000000 ) ) ;
#162 = DIRECTION ( 'NONE',  ( -0.0000000000000000000, -1.000000000000000000, -0.0000000000000000000 ) ) ;
#163 = APPLICATION_CONTEXT ( 'configuration controlled 3d designs of mechanical parts and assemblies' ) ;
#164 = FACE_OUTER_BOUND ( 'NONE', #145, .T. ) ;
#165 = PERSON_AND_ORGANIZATION_ROLE ( 'creator' ) ;
#166 = PERSON_AND_ORGANIZATION_ROLE ( 'creator' ) ;
#167 = DATE_AND_TIME ( #230, #5 ) ;
#168 = EDGE_LOOP ( 'NONE', ( #292, #59, #37, #277 ) ) ;
#169 = LOCAL_TIME ( 12, 36, 11.00000000000000000, #215 ) ;
#170 = ADVANCED_FACE ( 'NONE', ( #128 ), #40, .F. ) ;
#171 = VECTOR ( 'NONE', #134, 1000.000000000000000 ) ;
#172 = CC_DESIGN_PERSON_AND_ORGANIZATION_ASSIGNMENT ( #285, #166, ( #51 ) ) ;
#173 = COORDINATED_UNIVERSAL_TIME_OFFSET ( 1, 0, .AHEAD. ) ;
#174 = VECTOR ( 'NONE', #30, 1000.000000000000000 ) ;
#175 = DATE_AND_TIME ( #190, #169 ) ;
#176 = DIRECTION ( 'NONE',  ( 1.000000000000000000, 0.0000000000000000000, 0.0000000000000000000 ) ) ;
#177 = VECTOR ( 'NONE', #35, 1000.000000000000000 ) ;
#178 = ORIENTED_EDGE ( 'NONE', *, *, #45, .T. ) ;
#179 = DIRECTION ( 'NONE',  ( -0.0000000000000000000, -0.0000000000000000000, -1.000000000000000000 ) ) ;
#180 = EDGE_CURVE ( 'NONE', #71, #287, #139, .T. ) ;
#181 = VERTEX_POINT ( 'NONE', #246 ) ;
#182 = APPLICATION_PROTOCOL_DEFINITION ( 'international standard', 'config_control_design', 1994, #163 ) ;
#183 = SECURITY_CLASSIFICATION ( '', '', #273 ) ;
#184 = CARTESIAN_POINT ( 'NONE',  ( 0.0000000000000000000, -23.00000000000000000, 2.500000000000000000 ) ) ;
#185 = DIRECTION ( 'NONE',  ( 0.0000000000000000000, -0.0000000000000000000, 1.000000000000000000 ) ) ;
#186 = VECTOR ( 'NONE', #156, 1000.000000000000000 ) ;
#187 = ORIENTED_EDGE ( 'NONE', *, *, #235, .T. ) ;
#188 = DIRECTION ( 'NONE',  ( 0.0000000000000000000, 1.000000000000000000, 0.0000000000000000000 ) ) ;
#189 = EDGE_CURVE ( 'NONE', #233, #14, #201, .T. ) ;
#190 = CALENDAR_DATE ( 2021, 26, 11 ) ;
#191 = EDGE_LOOP ( 'NONE', ( #29, #65, #75, #78 ) ) ;
#192 = COORDINATED_UNIVERSAL_TIME_OFFSET ( 1, 0, .AHEAD. ) ;
#193 = CLOSED_SHELL ( 'NONE', ( #74, #234, #212, #279, #99, #278, #170, #281 ) ) ;
#194 = LINE ( 'NONE', #263, #13 ) ;
#195 = CARTESIAN_POINT ( 'NONE',  ( 24.99999999999999600, -25.00000000000000000, 2.500000000000000000 ) ) ;
#196 = ORIENTED_EDGE ( 'NONE', *, *, #121, .T. ) ;
#197 = ORIENTED_EDGE ( 'NONE', *, *, #284, .F. ) ;
#198 = DIRECTION ( 'NONE',  ( 0.0000000000000000000, 0.0000000000000000000, -1.000000000000000000 ) ) ;
#199 = EDGE_CURVE ( 'NONE', #148, #10, #194, .T. ) ;
#200 = CARTESIAN_POINT ( 'NONE',  ( 24.99999999999999600, -25.00000000000000000, 0.4999999999999913400 ) ) ;
#201 = LINE ( 'NONE', #85, #47 ) ;
#202 = VERTEX_POINT ( 'NONE', #87 ) ;
#203 = CARTESIAN_POINT ( 'NONE',  ( 0.0000000000000000000, -23.00000000000000000, 2.500000000000000000 ) ) ;
#204 =( NAMED_UNIT ( * ) SI_UNIT ( $, .STERADIAN. ) SOLID_ANGLE_UNIT ( ) );
#205 = PRODUCT_RELATED_PRODUCT_CATEGORY ( 'detail', '', ( #39 ) ) ;
#206 = DIRECTION ( 'NONE',  ( -0.0000000000000000000, -1.000000000000000000, -0.0000000000000000000 ) ) ;
#207 = VECTOR ( 'NONE', #162, 1000.000000000000000 ) ;
#208 = APPLICATION_CONTEXT ( 'configuration controlled 3d designs of mechanical parts and assemblies' ) ;
#209 = CARTESIAN_POINT ( 'NONE',  ( -25.00000000000000400, -25.00000000000000000, 2.500000000000000000 ) ) ;
#210 = VECTOR ( 'NONE', #64, 1000.000000000000000 ) ;
#211 = ORIENTED_EDGE ( 'NONE', *, *, #158, .T. ) ;
#212 = ADVANCED_FACE ( 'NONE', ( #164 ), #157, .F. ) ;
#213 = VECTOR ( 'NONE', #8, 1000.000000000000000 ) ;
#214 = PERSON ( 'UNSPECIFIED', 'UNSPECIFIED', 'UNSPECIFIED', ('UNSPECIFIED'), ('UNSPECIFIED'), ('UNSPECIFIED') ) ;
#215 = COORDINATED_UNIVERSAL_TIME_OFFSET ( 1, 0, .AHEAD. ) ;
#216 = LINE ( 'NONE', #184, #236 ) ;
#217 = ORIENTED_EDGE ( 'NONE', *, *, #149, .F. ) ;
#218 = AXIS2_PLACEMENT_3D ( 'NONE', #44, #25, #24 ) ;
#219 = LINE ( 'NONE', #268, #261 ) ;
#220 = LINE ( 'NONE', #131, #174 ) ;
#221 = PRODUCT_DEFINITION_SHAPE ( 'NONE', 'NONE',  #94 ) ;
#222 = AXIS2_PLACEMENT_3D ( 'NONE', #264, #265, #138 ) ;
#223 = VERTEX_POINT ( 'NONE', #63 ) ;
#224 = CARTESIAN_POINT ( 'NONE',  ( -25.00000000000000400, -23.00000000000000000, 2.500000000000000000 ) ) ;
#225 = CARTESIAN_POINT ( 'NONE',  ( 0.0000000000000000000, 0.0000000000000000000, 0.0000000000000000000 ) ) ;
#226 = PERSON_AND_ORGANIZATION ( #214, #32 ) ;
#227 = LINE ( 'NONE', #79, #280 ) ;
#228 = PERSON_AND_ORGANIZATION_ROLE ( 'classification_officer' ) ;
#229 = MECHANICAL_CONTEXT ( 'NONE', #208, 'mechanical' ) ;
#230 = CALENDAR_DATE ( 2021, 26, 11 ) ;
#231 = PLANE ( 'NONE',  #218 ) ;
#232 = ORIENTED_EDGE ( 'NONE', *, *, #62, .F. ) ;
#233 = VERTEX_POINT ( 'NONE', #200 ) ;
#234 = ADVANCED_FACE ( 'NONE', ( #77 ), #115, .F. ) ;
#235 = EDGE_CURVE ( 'NONE', #202, #233, #150, .T. ) ;
#236 = VECTOR ( 'NONE', #19, 1000.000000000000000 ) ;
#237 = CARTESIAN_POINT ( 'NONE',  ( -25.00000000000000400, -23.00000000000000000, 2.500000000000000000 ) ) ;
#238 = AXIS2_PLACEMENT_3D ( 'NONE', #72, #42, #117 ) ;
#239 = DIRECTION ( 'NONE',  ( -1.000000000000000000, 0.0000000000000000000, 0.0000000000000000000 ) ) ;
#240 = VECTOR ( 'NONE', #16, 1000.000000000000000 ) ;
#241 = ORIENTED_EDGE ( 'NONE', *, *, #199, .F. ) ;
#242 = CARTESIAN_POINT ( 'NONE',  ( 0.0000000000000000000, 0.0000000000000000000, 2.500000000000000000 ) ) ;
#243 = CARTESIAN_POINT ( 'NONE',  ( 24.99999999999999600, -25.00000000000000000, -2.500000000000000000 ) ) ;
#244 = LINE ( 'NONE', #290, #210 ) ;
#245 = ORIENTED_EDGE ( 'NONE', *, *, #284, .T. ) ;
#246 = CARTESIAN_POINT ( 'NONE',  ( 24.99999999999999600, 23.00000000000000000, 2.500000000000000000 ) ) ;
#247 = CARTESIAN_POINT ( 'NONE',  ( -25.00000000000000400, 25.00000000000000000, 0.4999999999999913400 ) ) ;
#248 = DIRECTION ( 'NONE',  ( -0.0000000000000000000, -0.7071067811865463500, -0.7071067811865487900 ) ) ;
#249 = DATE_AND_TIME ( #291, #22 ) ;
#250 = APPROVAL_STATUS ( 'not_yet_approved' ) ;
#251 = FACE_OUTER_BOUND ( 'NONE', #168, .T. ) ;
#252 = EDGE_LOOP ( 'NONE', ( #262, #143, #7, #197 ) ) ;
#253 = CC_DESIGN_PERSON_AND_ORGANIZATION_ASSIGNMENT ( #52, #228, ( #183 ) ) ;
#254 = APPROVAL_DATE_TIME ( #249, #18 ) ;
#255 = EDGE_LOOP ( 'NONE', ( #282, #109, #108, #196 ) ) ;
#256 = LINE ( 'NONE', #112, #177 ) ;
#257 = CARTESIAN_POINT ( 'NONE',  ( -25.00000000000000400, -25.00000000000000000, -2.500000000000000000 ) ) ;
#258 = PLANE ( 'NONE',  #133 ) ;
#259 = CARTESIAN_POINT ( 'NONE',  ( -25.00000000000000400, -25.00000000000000000, 0.4999999999999913400 ) ) ;
#260 = PERSON_AND_ORGANIZATION ( #214, #32 ) ;
#261 = VECTOR ( 'NONE', #140, 1000.000000000000000 ) ;
#262 = ORIENTED_EDGE ( 'NONE', *, *, #45, .F. ) ;
#263 = CARTESIAN_POINT ( 'NONE',  ( 24.99999999999999600, 25.00000000000000000, 2.500000000000000000 ) ) ;
#264 = CARTESIAN_POINT ( 'NONE',  ( -25.00000000000000400, 25.00000000000000000, 2.500000000000000000 ) ) ;
#265 = DIRECTION ( 'NONE',  ( 0.0000000000000000000, -1.000000000000000000, 0.0000000000000000000 ) ) ;
#266 = LINE ( 'NONE', #296, #207 ) ;
#267 = VERTEX_POINT ( 'NONE', #224 ) ;
#268 = CARTESIAN_POINT ( 'NONE',  ( 0.0000000000000000000, 23.00000000000000000, 2.500000000000000000 ) ) ;
#269 = EDGE_CURVE ( 'NONE', #223, #23, #107, .T. ) ;
#270 = CARTESIAN_POINT ( 'NONE',  ( 24.99999999999999600, -23.00000000000000000, 2.500000000000000000 ) ) ;
#271 = ORIENTED_EDGE ( 'NONE', *, *, #31, .T. ) ;
#272 = CARTESIAN_POINT ( 'NONE',  ( 24.99999999999999600, -25.00000000000000000, -2.500000000000000000 ) ) ;
#273 = SECURITY_CLASSIFICATION_LEVEL ( 'unclassified' ) ;
#274 =( GEOMETRIC_REPRESENTATION_CONTEXT ( 3 ) GLOBAL_UNCERTAINTY_ASSIGNED_CONTEXT ( ( #144 ) ) GLOBAL_UNIT_ASSIGNED_CONTEXT ( ( #70, #119, #204 ) ) REPRESENTATION_CONTEXT ( 'NONE', 'WORKASPACE' ) );
#275 = CARTESIAN_POINT ( 'NONE',  ( -25.00000000000000400, -25.00000000000000000, -2.500000000000000000 ) ) ;
#276 = LINE ( 'NONE', #243, #240 ) ;
#277 = ORIENTED_EDGE ( 'NONE', *, *, #121, .F. ) ;
#278 = ADVANCED_FACE ( 'NONE', ( #251 ), #231, .T. ) ;
#279 = ADVANCED_FACE ( 'NONE', ( #9 ), #96, .F. ) ;
#280 = VECTOR ( 'NONE', #82, 1000.000000000000000 ) ;
#281 = ADVANCED_FACE ( 'NONE', ( #301 ), #92, .F. ) ;
#282 = ORIENTED_EDGE ( 'NONE', *, *, #114, .F. ) ;
#283 = CARTESIAN_POINT ( 'NONE',  ( -25.00000000000000400, 23.00000000000000000, 2.500000000000000000 ) ) ;
#284 = EDGE_CURVE ( 'NONE', #181, #71, #219, .T. ) ;
#285 = PERSON_AND_ORGANIZATION ( #214, #32 ) ;
#286 = CARTESIAN_POINT ( 'NONE',  ( 24.99999999999999600, 25.00000000000000000, -2.500000000000000000 ) ) ;
#287 = VERTEX_POINT ( 'NONE', #247 ) ;
#288 = CC_DESIGN_PERSON_AND_ORGANIZATION_ASSIGNMENT ( #93, #95, ( #39 ) ) ;
#289 = DIRECTION ( 'NONE',  ( -0.0000000000000000000, -0.0000000000000000000, -1.000000000000000000 ) ) ;
#290 = CARTESIAN_POINT ( 'NONE',  ( -25.00000000000000400, -25.00000000000000000, -2.500000000000000000 ) ) ;
#291 = CALENDAR_DATE ( 2021, 26, 11 ) ;
#292 = ORIENTED_EDGE ( 'NONE', *, *, #84, .F. ) ;
#293 = DIRECTION ( 'NONE',  ( 0.0000000000000000000, 0.0000000000000000000, 1.000000000000000000 ) ) ;
#294 = EDGE_CURVE ( 'NONE', #71, #267, #266, .T. ) ;
#295 = CARTESIAN_POINT ( 'NONE',  ( 24.99999999999999600, -25.00000000000000000, 2.500000000000000000 ) ) ;
#296 = CARTESIAN_POINT ( 'NONE',  ( -25.00000000000000400, -25.00000000000000000, 2.500000000000000000 ) ) ;
#297 = ORIENTED_EDGE ( 'NONE', *, *, #114, .T. ) ;
#298 = APPLICATION_PROTOCOL_DEFINITION ( 'international standard', 'config_control_design', 1994, #208 ) ;
#299 = DATE_TIME_ROLE ( 'classification_date' ) ;
#300 = APPROVAL_DATE_TIME ( #141, #53 ) ;
#301 = FACE_OUTER_BOUND ( 'NONE', #252, .T. ) ;
#302 = EDGE_CURVE ( 'NONE', #267, #202, #216, .T. ) ;
#303 = VERTEX_POINT ( 'NONE', #272 ) ;
ENDSEC;
END-ISO-10303-21;
