ISO-10303-21;
HEADER;
FILE_DESCRIPTION (( 'STEP AP203' ),
    '1' );
FILE_NAME ('IP68-POD-MAG1-1.STEP',
    '2021-11-26T11:36:23',
    ( '' ),
    ( '' ),
    'SwSTEP 2.0',
    'SolidWorks 2016',
    '' );
FILE_SCHEMA (( 'CONFIG_CONTROL_DESIGN' ));
ENDSEC;

DATA;
#1 = MANIFOLD_SOLID_BREP ( 'Boss.-Extru.1', #180 ) ;
#2 = VERTEX_POINT ( 'NONE', #93 ) ;
#3 = ORIENTED_EDGE ( 'NONE', *, *, #161, .F. ) ;
#4 = CALENDAR_DATE ( 2021, 26, 11 ) ;
#5 = LINE ( 'NONE', #97, #101 ) ;
#6 = ORIENTED_EDGE ( 'NONE', *, *, #66, .T. ) ;
#7 = EDGE_CURVE ( 'NONE', #73, #156, #133, .T. ) ;
#8 = CARTESIAN_POINT ( 'NONE',  ( -24.99999999999999600, 25.00000000000000400, 7.500000000000000000 ) ) ;
#9 = APPROVAL_PERSON_ORGANIZATION ( #113, #193, #226 ) ;
#10 = PLANE ( 'NONE',  #153 ) ;
#11 = CALENDAR_DATE ( 2021, 26, 11 ) ;
#12 = CARTESIAN_POINT ( 'NONE',  ( -24.99999999999999600, -25.00000000000000000, -7.500000000000000000 ) ) ;
#13 = DIRECTION ( 'NONE',  ( 1.000000000000000000, 0.0000000000000000000, 0.0000000000000000000 ) ) ;
#14 = PLANE ( 'NONE',  #172 ) ;
#15 = CARTESIAN_POINT ( 'NONE',  ( -24.99999999999999600, 25.00000000000000400, 7.500000000000000000 ) ) ;
#16 = DATE_AND_TIME ( #11, #53 ) ;
#17 = CARTESIAN_POINT ( 'NONE',  ( -24.99999999999999600, -25.00000000000000000, 7.500000000000000000 ) ) ;
#18 = DIRECTION ( 'NONE',  ( -1.000000000000000000, 0.0000000000000000000, 0.0000000000000000000 ) ) ;
#19 = VERTEX_POINT ( 'NONE', #111 ) ;
#20 = AXIS2_PLACEMENT_3D ( 'NONE', #30, #13, #112 ) ;
#21 = LINE ( 'NONE', #228, #183 ) ;
#22 = ADVANCED_FACE ( 'NONE', ( #191 ), #57, .F. ) ;
#23 = EDGE_CURVE ( 'NONE', #70, #2, #36, .T. ) ;
#24 = VERTEX_POINT ( 'NONE', #147 ) ;
#25 = ADVANCED_FACE ( 'NONE', ( #166 ), #10, .F. ) ;
#26 = VERTEX_POINT ( 'NONE', #110 ) ;
#27 = UNCERTAINTY_MEASURE_WITH_UNIT (LENGTH_MEASURE( 1.000000000000000100E-005 ), #56, 'distance_accuracy_value', 'NONE');
#28 = DIRECTION ( 'NONE',  ( 0.0000000000000000000, 1.000000000000000000, 0.0000000000000000000 ) ) ;
#29 = PERSON_AND_ORGANIZATION ( #215, #105 ) ;
#30 = CARTESIAN_POINT ( 'NONE',  ( -24.99999999999999600, -25.00000000000000000, 7.500000000000000000 ) ) ;
#31 = ORIENTED_EDGE ( 'NONE', *, *, #23, .T. ) ;
#32 = DIRECTION ( 'NONE',  ( -0.0000000000000000000, -1.000000000000000000, -0.0000000000000000000 ) ) ;
#33 = VECTOR ( 'NONE', #28, 1000.000000000000000 ) ;
#34 = EDGE_LOOP ( 'NONE', ( #163, #225, #65, #98 ) ) ;
#35 = CALENDAR_DATE ( 2021, 26, 11 ) ;
#36 = LINE ( 'NONE', #206, #138 ) ;
#37 = PLANE ( 'NONE',  #20 ) ;
#38 = APPROVAL_STATUS ( 'not_yet_approved' ) ;
#39 = COORDINATED_UNIVERSAL_TIME_OFFSET ( 1, 0, .AHEAD. ) ;
#40 = LINE ( 'NONE', #152, #68 ) ;
#41 = EDGE_LOOP ( 'NONE', ( #6, #77, #219, #124 ) ) ;
#42 = DIRECTION ( 'NONE',  ( 0.0000000000000000000, 1.000000000000000000, 0.0000000000000000000 ) ) ;
#43 = DIRECTION ( 'NONE',  ( 0.0000000000000000000, 0.0000000000000000000, 1.000000000000000000 ) ) ;
#44 = EDGE_CURVE ( 'NONE', #156, #19, #21, .T. ) ;
#45 = LOCAL_TIME ( 12, 36, 23.00000000000000000, #155 ) ;
#46 = ORIENTED_EDGE ( 'NONE', *, *, #7, .F. ) ;
#47 = DIRECTION ( 'NONE',  ( -0.0000000000000000000, -1.000000000000000000, -0.0000000000000000000 ) ) ;
#48 = COORDINATED_UNIVERSAL_TIME_OFFSET ( 1, 0, .AHEAD. ) ;
#49 = DIRECTION ( 'NONE',  ( 0.0000000000000000000, 0.0000000000000000000, 1.000000000000000000 ) ) ;
#50 = APPROVAL_DATE_TIME ( #175, #205 ) ;
#51 = VECTOR ( 'NONE', #85, 1000.000000000000000 ) ;
#52 = SECURITY_CLASSIFICATION ( '', '', #213 ) ;
#53 = LOCAL_TIME ( 12, 36, 23.00000000000000000, #48 ) ;
#54 = ORIENTED_EDGE ( 'NONE', *, *, #44, .F. ) ;
#55 = DIRECTION ( 'NONE',  ( 0.0000000000000000000, -0.0000000000000000000, -1.000000000000000000 ) ) ;
#56 =( LENGTH_UNIT ( ) NAMED_UNIT ( * ) SI_UNIT ( .MILLI., .METRE. ) );
#57 = PLANE ( 'NONE',  #126 ) ;
#58 = EDGE_LOOP ( 'NONE', ( #54, #88, #230, #92 ) ) ;
#59 = EDGE_CURVE ( 'NONE', #26, #104, #107, .T. ) ;
#60 = PERSON_AND_ORGANIZATION_ROLE ( 'design_supplier' ) ;
#61 = LINE ( 'NONE', #12, #132 ) ;
#62 = CC_DESIGN_PERSON_AND_ORGANIZATION_ASSIGNMENT ( #29, #173, ( #52 ) ) ;
#63 = DIRECTION ( 'NONE',  ( 0.0000000000000000000, 1.000000000000000000, 0.0000000000000000000 ) ) ;
#64 = APPROVAL_PERSON_ORGANIZATION ( #217, #128, #103 ) ;
#65 = ORIENTED_EDGE ( 'NONE', *, *, #59, .F. ) ;
#66 = EDGE_CURVE ( 'NONE', #73, #26, #76, .T. ) ;
#67 = DATE_AND_TIME ( #35, #72 ) ;
#68 = VECTOR ( 'NONE', #137, 1000.000000000000000 ) ;
#69 = ORIENTED_EDGE ( 'NONE', *, *, #71, .T. ) ;
#70 = VERTEX_POINT ( 'NONE', #171 ) ;
#71 = EDGE_CURVE ( 'NONE', #2, #156, #61, .T. ) ;
#72 = LOCAL_TIME ( 12, 36, 23.00000000000000000, #123 ) ;
#73 = VERTEX_POINT ( 'NONE', #232 ) ;
#74 = DIRECTION ( 'NONE',  ( -0.0000000000000000000, -0.0000000000000000000, -1.000000000000000000 ) ) ;
#75 = DIRECTION ( 'NONE',  ( -1.000000000000000000, 0.0000000000000000000, -0.0000000000000000000 ) ) ;
#76 = LINE ( 'NONE', #116, #33 ) ;
#77 = ORIENTED_EDGE ( 'NONE', *, *, #59, .T. ) ;
#78 = APPLICATION_PROTOCOL_DEFINITION ( 'international standard', 'config_control_design', 1994, #95 ) ;
#79 = APPROVAL_ROLE ( '' ) ;
#80 = CC_DESIGN_PERSON_AND_ORGANIZATION_ASSIGNMENT ( #144, #231, ( #162 ) ) ;
#81 = CARTESIAN_POINT ( 'NONE',  ( -24.99999999999999600, -25.00000000000000000, 7.500000000000000000 ) ) ;
#82 = EDGE_CURVE ( 'NONE', #26, #19, #148, .T. ) ;
#83 = DATE_AND_TIME ( #4, #199 ) ;
#84 = VECTOR ( 'NONE', #210, 1000.000000000000000 ) ;
#85 = DIRECTION ( 'NONE',  ( -0.0000000000000000000, -0.0000000000000000000, -1.000000000000000000 ) ) ;
#86 = VECTOR ( 'NONE', #188, 1000.000000000000000 ) ;
#87 = APPROVAL_PERSON_ORGANIZATION ( #134, #205, #79 ) ;
#88 = ORIENTED_EDGE ( 'NONE', *, *, #71, .F. ) ;
#89 = CC_DESIGN_DATE_AND_TIME_ASSIGNMENT ( #67, #233, ( #52 ) ) ;
#90 = ADVANCED_FACE ( 'NONE', ( #200 ), #14, .T. ) ;
#91 = PERSON_AND_ORGANIZATION ( #215, #105 ) ;
#92 = ORIENTED_EDGE ( 'NONE', *, *, #143, .F. ) ;
#93 = CARTESIAN_POINT ( 'NONE',  ( -24.99999999999999600, -25.00000000000000000, -7.500000000000000000 ) ) ;
#94 = EDGE_CURVE ( 'NONE', #24, #73, #181, .T. ) ;
#95 = APPLICATION_CONTEXT ( 'configuration controlled 3d designs of mechanical parts and assemblies' ) ;
#96 = PRODUCT_DEFINITION_SHAPE ( 'NONE', 'NONE',  #162 ) ;
#97 = CARTESIAN_POINT ( 'NONE',  ( -24.99999999999999600, -25.00000000000000000, 7.500000000000000000 ) ) ;
#98 = ORIENTED_EDGE ( 'NONE', *, *, #82, .T. ) ;
#99 = DIRECTION ( 'NONE',  ( 1.000000000000000000, 0.0000000000000000000, 0.0000000000000000000 ) ) ;
#100 = CARTESIAN_POINT ( 'NONE',  ( -24.99999999999999600, 25.00000000000000400, 7.500000000000000000 ) ) ;
#101 = VECTOR ( 'NONE', #74, 1000.000000000000000 ) ;
#102 = CC_DESIGN_PERSON_AND_ORGANIZATION_ASSIGNMENT ( #127, #154, ( #196 ) ) ;
#103 = APPROVAL_ROLE ( '' ) ;
#104 = VERTEX_POINT ( 'NONE', #15 ) ;
#105 = ORGANIZATION ( 'UNSPECIFIED', 'UNSPECIFIED', '' ) ;
#106 = FACE_OUTER_BOUND ( 'NONE', #236, .T. ) ;
#107 = LINE ( 'NONE', #224, #86 ) ;
#108 = CC_DESIGN_APPROVAL ( #193, ( #162 ) ) ;
#109 = EDGE_CURVE ( 'NONE', #104, #70, #218, .T. ) ;
#110 = CARTESIAN_POINT ( 'NONE',  ( 24.99999999999999600, 25.00000000000000400, 7.500000000000000000 ) ) ;
#111 = CARTESIAN_POINT ( 'NONE',  ( 24.99999999999999600, 25.00000000000000400, -7.500000000000000000 ) ) ;
#112 = DIRECTION ( 'NONE',  ( 0.0000000000000000000, 0.0000000000000000000, -1.000000000000000000 ) ) ;
#113 = PERSON_AND_ORGANIZATION ( #215, #105 ) ;
#114 = CARTESIAN_POINT ( 'NONE',  ( 0.0000000000000000000, 0.0000000000000000000, 7.500000000000000000 ) ) ;
#115 = APPROVAL_STATUS ( 'not_yet_approved' ) ;
#116 = CARTESIAN_POINT ( 'NONE',  ( 24.99999999999999600, -25.00000000000000000, 7.500000000000000000 ) ) ;
#117 = MECHANICAL_CONTEXT ( 'NONE', #95, 'mechanical' ) ;
#118 = CARTESIAN_POINT ( 'NONE',  ( -24.99999999999999600, -25.00000000000000000, 7.500000000000000000 ) ) ;
#119 = APPROVAL_DATE_TIME ( #212, #128 ) ;
#120 = ORIENTED_EDGE ( 'NONE', *, *, #82, .F. ) ;
#121 = CARTESIAN_POINT ( 'NONE',  ( 24.99999999999999600, 25.00000000000000400, 7.500000000000000000 ) ) ;
#122 =( GEOMETRIC_REPRESENTATION_CONTEXT ( 3 ) GLOBAL_UNCERTAINTY_ASSIGNED_CONTEXT ( ( #27 ) ) GLOBAL_UNIT_ASSIGNED_CONTEXT ( ( #56, #227, #167 ) ) REPRESENTATION_CONTEXT ( 'NONE', 'WORKASPACE' ) );
#123 = COORDINATED_UNIVERSAL_TIME_OFFSET ( 1, 0, .AHEAD. ) ;
#124 = ORIENTED_EDGE ( 'NONE', *, *, #94, .T. ) ;
#125 = VECTOR ( 'NONE', #229, 1000.000000000000000 ) ;
#126 = AXIS2_PLACEMENT_3D ( 'NONE', #114, #222, #146 ) ;
#127 = PERSON_AND_ORGANIZATION ( #215, #105 ) ;
#128 = APPROVAL ( #38, 'UNSPECIFIED' ) ;
#129 = ORIENTED_EDGE ( 'NONE', *, *, #7, .T. ) ;
#130 = VECTOR ( 'NONE', #220, 1000.000000000000000 ) ;
#131 = APPROVAL_DATE_TIME ( #16, #193 ) ;
#132 = VECTOR ( 'NONE', #194, 1000.000000000000000 ) ;
#133 = LINE ( 'NONE', #203, #130 ) ;
#134 = PERSON_AND_ORGANIZATION ( #215, #105 ) ;
#135 = CC_DESIGN_APPROVAL ( #128, ( #52 ) ) ;
#136 = PLANE ( 'NONE',  #164 ) ;
#137 = DIRECTION ( 'NONE',  ( -1.000000000000000000, -0.0000000000000000000, -0.0000000000000000000 ) ) ;
#138 = VECTOR ( 'NONE', #32, 1000.000000000000000 ) ;
#139 = ORIENTED_EDGE ( 'NONE', *, *, #109, .T. ) ;
#140 = AXIS2_PLACEMENT_3D ( 'NONE', #169, #43, #99 ) ;
#141 = FACE_OUTER_BOUND ( 'NONE', #142, .T. ) ;
#142 = EDGE_LOOP ( 'NONE', ( #69, #46, #208, #157 ) ) ;
#143 = EDGE_CURVE ( 'NONE', #19, #70, #40, .T. ) ;
#144 = PERSON_AND_ORGANIZATION ( #215, #105 ) ;
#145 = AXIS2_PLACEMENT_3D ( 'NONE', #17, #63, #168 ) ;
#146 = DIRECTION ( 'NONE',  ( -1.000000000000000000, 0.0000000000000000000, -0.0000000000000000000 ) ) ;
#147 = CARTESIAN_POINT ( 'NONE',  ( -24.99999999999999600, -25.00000000000000000, 7.500000000000000000 ) ) ;
#148 = LINE ( 'NONE', #121, #125 ) ;
#149 = CARTESIAN_POINT ( 'NONE',  ( 0.0000000000000000000, 0.0000000000000000000, -7.500000000000000000 ) ) ;
#150 = CC_DESIGN_PERSON_AND_ORGANIZATION_ASSIGNMENT ( #91, #187, ( #158 ) ) ;
#151 = CC_DESIGN_DATE_AND_TIME_ASSIGNMENT ( #83, #195, ( #162 ) ) ;
#152 = CARTESIAN_POINT ( 'NONE',  ( -24.99999999999999600, 25.00000000000000400, -7.500000000000000000 ) ) ;
#153 = AXIS2_PLACEMENT_3D ( 'NONE', #8, #165, #55 ) ;
#154 = PERSON_AND_ORGANIZATION_ROLE ( 'creator' ) ;
#155 = COORDINATED_UNIVERSAL_TIME_OFFSET ( 1, 0, .AHEAD. ) ;
#156 = VERTEX_POINT ( 'NONE', #177 ) ;
#157 = ORIENTED_EDGE ( 'NONE', *, *, #221, .T. ) ;
#158 = PRODUCT ( 'IP68-POD-MAG1-1', 'IP68-POD-MAG1-1', '', ( #117 ) ) ;
#159 = CC_DESIGN_SECURITY_CLASSIFICATION ( #52, ( #196 ) ) ;
#160 = LINE ( 'NONE', #118, #202 ) ;
#161 = EDGE_CURVE ( 'NONE', #104, #24, #160, .T. ) ;
#162 = PRODUCT_DEFINITION ( 'UNKNOWN', '', #196, #204 ) ;
#163 = ORIENTED_EDGE ( 'NONE', *, *, #143, .T. ) ;
#164 = AXIS2_PLACEMENT_3D ( 'NONE', #237, #18, #49 ) ;
#165 = DIRECTION ( 'NONE',  ( 0.0000000000000000000, -1.000000000000000000, 0.0000000000000000000 ) ) ;
#166 = FACE_OUTER_BOUND ( 'NONE', #34, .T. ) ;
#167 =( NAMED_UNIT ( * ) SI_UNIT ( $, .STERADIAN. ) SOLID_ANGLE_UNIT ( ) );
#168 = DIRECTION ( 'NONE',  ( 0.0000000000000000000, -0.0000000000000000000, 1.000000000000000000 ) ) ;
#169 = CARTESIAN_POINT ( 'NONE',  ( 0.0000000000000000000, 0.0000000000000000000, 0.0000000000000000000 ) ) ;
#170 = ORIENTED_EDGE ( 'NONE', *, *, #221, .F. ) ;
#171 = CARTESIAN_POINT ( 'NONE',  ( -24.99999999999999600, 25.00000000000000400, -7.500000000000000000 ) ) ;
#172 = AXIS2_PLACEMENT_3D ( 'NONE', #149, #192, #75 ) ;
#173 = PERSON_AND_ORGANIZATION_ROLE ( 'classification_officer' ) ;
#174 = APPROVAL_STATUS ( 'not_yet_approved' ) ;
#175 = DATE_AND_TIME ( #207, #223 ) ;
#176 = PRODUCT_RELATED_PRODUCT_CATEGORY ( 'detail', '', ( #158 ) ) ;
#177 = CARTESIAN_POINT ( 'NONE',  ( 24.99999999999999600, -25.00000000000000000, -7.500000000000000000 ) ) ;
#178 = CALENDAR_DATE ( 2021, 26, 11 ) ;
#179 = ORIENTED_EDGE ( 'NONE', *, *, #44, .T. ) ;
#180 = CLOSED_SHELL ( 'NONE', ( #182, #25, #201, #184, #22, #90 ) ) ;
#181 = LINE ( 'NONE', #81, #84 ) ;
#182 = ADVANCED_FACE ( 'NONE', ( #186 ), #136, .F. ) ;
#183 = VECTOR ( 'NONE', #42, 1000.000000000000000 ) ;
#184 = ADVANCED_FACE ( 'NONE', ( #141 ), #197, .F. ) ;
#185 = ADVANCED_BREP_SHAPE_REPRESENTATION ( 'IP68-POD-MAG1-1', ( #1, #140 ), #122 ) ;
#186 = FACE_OUTER_BOUND ( 'NONE', #209, .T. ) ;
#187 = PERSON_AND_ORGANIZATION_ROLE ( 'design_owner' ) ;
#188 = DIRECTION ( 'NONE',  ( -1.000000000000000000, -0.0000000000000000000, -0.0000000000000000000 ) ) ;
#189 = APPLICATION_CONTEXT ( 'configuration controlled 3d designs of mechanical parts and assemblies' ) ;
#190 = PERSON_AND_ORGANIZATION ( #215, #105 ) ;
#191 = FACE_OUTER_BOUND ( 'NONE', #41, .T. ) ;
#192 = DIRECTION ( 'NONE',  ( 0.0000000000000000000, 0.0000000000000000000, -1.000000000000000000 ) ) ;
#193 = APPROVAL ( #115, 'UNSPECIFIED' ) ;
#194 = DIRECTION ( 'NONE',  ( 1.000000000000000000, 0.0000000000000000000, 0.0000000000000000000 ) ) ;
#195 = DATE_TIME_ROLE ( 'creation_date' ) ;
#196 = PRODUCT_DEFINITION_FORMATION_WITH_SPECIFIED_SOURCE ( 'ANY', '', #158, .NOT_KNOWN. ) ;
#197 = PLANE ( 'NONE',  #145 ) ;
#198 = SHAPE_DEFINITION_REPRESENTATION ( #96, #185 ) ;
#199 = LOCAL_TIME ( 12, 36, 23.00000000000000000, #235 ) ;
#200 = FACE_OUTER_BOUND ( 'NONE', #58, .T. ) ;
#201 = ADVANCED_FACE ( 'NONE', ( #106 ), #37, .F. ) ;
#202 = VECTOR ( 'NONE', #47, 1000.000000000000000 ) ;
#203 = CARTESIAN_POINT ( 'NONE',  ( 24.99999999999999600, -25.00000000000000000, 7.500000000000000000 ) ) ;
#204 = DESIGN_CONTEXT ( 'detailed design', #189, 'design' ) ;
#205 = APPROVAL ( #174, 'UNSPECIFIED' ) ;
#206 = CARTESIAN_POINT ( 'NONE',  ( -24.99999999999999600, -25.00000000000000000, -7.500000000000000000 ) ) ;
#207 = CALENDAR_DATE ( 2021, 26, 11 ) ;
#208 = ORIENTED_EDGE ( 'NONE', *, *, #94, .F. ) ;
#209 = EDGE_LOOP ( 'NONE', ( #179, #120, #214, #129 ) ) ;
#210 = DIRECTION ( 'NONE',  ( 1.000000000000000000, 0.0000000000000000000, 0.0000000000000000000 ) ) ;
#211 = APPLICATION_PROTOCOL_DEFINITION ( 'international standard', 'config_control_design', 1994, #189 ) ;
#212 = DATE_AND_TIME ( #178, #45 ) ;
#213 = SECURITY_CLASSIFICATION_LEVEL ( 'unclassified' ) ;
#214 = ORIENTED_EDGE ( 'NONE', *, *, #66, .F. ) ;
#215 = PERSON ( 'UNSPECIFIED', 'UNSPECIFIED', 'UNSPECIFIED', ('UNSPECIFIED'), ('UNSPECIFIED'), ('UNSPECIFIED') ) ;
#216 = CC_DESIGN_APPROVAL ( #205, ( #196 ) ) ;
#217 = PERSON_AND_ORGANIZATION ( #215, #105 ) ;
#218 = LINE ( 'NONE', #100, #51 ) ;
#219 = ORIENTED_EDGE ( 'NONE', *, *, #161, .T. ) ;
#220 = DIRECTION ( 'NONE',  ( -0.0000000000000000000, -0.0000000000000000000, -1.000000000000000000 ) ) ;
#221 = EDGE_CURVE ( 'NONE', #24, #2, #5, .T. ) ;
#222 = DIRECTION ( 'NONE',  ( 0.0000000000000000000, 0.0000000000000000000, -1.000000000000000000 ) ) ;
#223 = LOCAL_TIME ( 12, 36, 23.00000000000000000, #39 ) ;
#224 = CARTESIAN_POINT ( 'NONE',  ( -24.99999999999999600, 25.00000000000000400, 7.500000000000000000 ) ) ;
#225 = ORIENTED_EDGE ( 'NONE', *, *, #109, .F. ) ;
#226 = APPROVAL_ROLE ( '' ) ;
#227 =( NAMED_UNIT ( * ) PLANE_ANGLE_UNIT ( ) SI_UNIT ( $, .RADIAN. ) );
#228 = CARTESIAN_POINT ( 'NONE',  ( 24.99999999999999600, -25.00000000000000000, -7.500000000000000000 ) ) ;
#229 = DIRECTION ( 'NONE',  ( -0.0000000000000000000, -0.0000000000000000000, -1.000000000000000000 ) ) ;
#230 = ORIENTED_EDGE ( 'NONE', *, *, #23, .F. ) ;
#231 = PERSON_AND_ORGANIZATION_ROLE ( 'creator' ) ;
#232 = CARTESIAN_POINT ( 'NONE',  ( 24.99999999999999600, -25.00000000000000000, 7.500000000000000000 ) ) ;
#233 = DATE_TIME_ROLE ( 'classification_date' ) ;
#234 = CC_DESIGN_PERSON_AND_ORGANIZATION_ASSIGNMENT ( #190, #60, ( #196 ) ) ;
#235 = COORDINATED_UNIVERSAL_TIME_OFFSET ( 1, 0, .AHEAD. ) ;
#236 = EDGE_LOOP ( 'NONE', ( #31, #170, #3, #139 ) ) ;
#237 = CARTESIAN_POINT ( 'NONE',  ( 24.99999999999999600, -25.00000000000000000, 7.500000000000000000 ) ) ;
ENDSEC;
END-ISO-10303-21;
