ISO-10303-21;
HEADER;
FILE_DESCRIPTION( ( 'STEP AP203' ), '1' );
FILE_NAME( ' ', '  ', ( '  ' ), ( '  ' ), 'PSStep 10.0', '  ', '  ' );
FILE_SCHEMA( ( 'CONFIG_CONTROL_DESIGN' ) );
ENDSEC;
DATA;
#1 = DESIGN_CONTEXT( '', #27, 'design' );
#2 = APPLICATION_PROTOCOL_DEFINITION( 'INTERNATIONAL STANDARD', 'config_control_design', 1994, #27 );
#3 = PRODUCT_CATEGORY_RELATIONSHIP( 'NONE', 'NONE', #28, #29 );
#4 = DATE_AND_TIME( #30, #31 );
#5 = DATE_TIME_ROLE( 'creation_date' );
#6 = DATE_TIME_ROLE( 'classification_date' );
#7 = PERSON_AND_ORGANIZATION_ROLE( 'creator' );
#8 = PERSON_AND_ORGANIZATION_ROLE( 'design_supplier' );
#9 = PERSON_AND_ORGANIZATION_ROLE( 'classification_officer' );
#10 = PERSON_AND_ORGANIZATION_ROLE( 'design_owner' );
#11 = APPROVAL_PERSON_ORGANIZATION( #32, #33, #34 );
#12 = APPROVAL_DATE_TIME( #4, #33 );
#13 = CC_DESIGN_APPROVAL( #33, ( #35, #36, #37 ) );
#14 = CC_DESIGN_DATE_AND_TIME_ASSIGNMENT( #4, #5, ( #37 ) );
#15 = CC_DESIGN_DATE_AND_TIME_ASSIGNMENT( #4, #6, ( #35 ) );
#16 = CC_DESIGN_PERSON_AND_ORGANIZATION_ASSIGNMENT( #32, #10, ( #38 ) );
#17 = CC_DESIGN_PERSON_AND_ORGANIZATION_ASSIGNMENT( #32, #7, ( #37 ) );
#18 = CC_DESIGN_PERSON_AND_ORGANIZATION_ASSIGNMENT( #32, #7, ( #36 ) );
#19 = CC_DESIGN_PERSON_AND_ORGANIZATION_ASSIGNMENT( #32, #8, ( #36 ) );
#20 = CC_DESIGN_SECURITY_CLASSIFICATION( #35, ( #36 ) );
#21 = CC_DESIGN_PERSON_AND_ORGANIZATION_ASSIGNMENT( #32, #9, ( #35 ) );
#22 = SHAPE_DEFINITION_REPRESENTATION( #39, #40 );
#23 =  ( GEOMETRIC_REPRESENTATION_CONTEXT( 3 )GLOBAL_UNCERTAINTY_ASSIGNED_CONTEXT( ( #43 ) )GLOBAL_UNIT_ASSIGNED_CONTEXT( ( #45, #46, #47 ) )REPRESENTATION_CONTEXT( 'NONE', 'WORKSPACE' ) );
#27 = APPLICATION_CONTEXT( 'CONFIGURATION CONTROLLED 3D DESIGNS OF MECHANICAL PARTS AND ASSEMBLIES' );
#28 = PRODUCT_CATEGORY( 'part', 'NONE' );
#29 = PRODUCT_RELATED_PRODUCT_CATEGORY( 'detail', ' ', ( #38 ) );
#30 = CALENDAR_DATE( 2021, 21, 10 );
#31 = LOCAL_TIME( 17, 19, 11.0000000000000, #49 );
#32 = PERSON_AND_ORGANIZATION( #50, #51 );
#33 = APPROVAL( #52, 'SOLID MODEL' );
#34 = APPROVAL_ROLE( 'APPROVED' );
#35 = SECURITY_CLASSIFICATION( '', '', #53 );
#36 = PRODUCT_DEFINITION_FORMATION_WITH_SPECIFIED_SOURCE( ' ', 'NONE', #38, .NOT_KNOWN. );
#37 = PRODUCT_DEFINITION( 'NONE', 'NONE', #36, #1 );
#38 = PRODUCT( '1', '1', 'PART-1-DESC', ( #54 ) );
#39 = PRODUCT_DEFINITION_SHAPE( 'NONE', 'NONE', #37 );
#40 = ADVANCED_BREP_SHAPE_REPRESENTATION( '1', ( #55, #56 ), #23 );
#43 = UNCERTAINTY_MEASURE_WITH_UNIT( LENGTH_MEASURE( 0.00100000000000000 ), #45, '', '' );
#45 =  ( CONVERSION_BASED_UNIT( 'MILLIMETRE', #59 )LENGTH_UNIT(  )NAMED_UNIT( #62 ) );
#46 =  ( NAMED_UNIT( #64 )PLANE_ANGLE_UNIT(  )SI_UNIT( $, .RADIAN. ) );
#47 =  ( NAMED_UNIT( #64 )SI_UNIT( $, .STERADIAN. )SOLID_ANGLE_UNIT(  ) );
#49 = COORDINATED_UNIVERSAL_TIME_OFFSET( 1, 0, .AHEAD. );
#50 = PERSON( '', 'UNSPECIFIED', $, $, $, $ );
#51 = ORGANIZATION( 'UNSPECIFIED', 'UNSPECIFIED', 'UNSPECIFIED' );
#52 = APPROVAL_STATUS( 'approved' );
#53 = SECURITY_CLASSIFICATION_LEVEL( 'unclassified' );
#54 = MECHANICAL_CONTEXT( '', #27, 'mechanical' );
#55 = MANIFOLD_SOLID_BREP( '1', #70 );
#56 = AXIS2_PLACEMENT_3D( '', #71, #72, #73 );
#59 = LENGTH_MEASURE_WITH_UNIT( LENGTH_MEASURE( 1.00000000000000 ), #74 );
#62 = DIMENSIONAL_EXPONENTS( 1.00000000000000, 0.000000000000000, 0.000000000000000, 0.000000000000000, 0.000000000000000, 0.000000000000000, 0.000000000000000 );
#64 = DIMENSIONAL_EXPONENTS( 0.000000000000000, 0.000000000000000, 0.000000000000000, 0.000000000000000, 0.000000000000000, 0.000000000000000, 0.000000000000000 );
#70 = CLOSED_SHELL( '', ( #75, #76, #77, #78, #79, #80, #81, #82, #83, #84, #85, #86, #87, #88, #89, #90, #91, #92 ) );
#71 = CARTESIAN_POINT( '', ( 0.000000000000000, 0.000000000000000, 0.000000000000000 ) );
#72 = DIRECTION( '', ( 0.000000000000000, 0.000000000000000, 1.00000000000000 ) );
#73 = DIRECTION( '', ( 1.00000000000000, 0.000000000000000, 0.000000000000000 ) );
#74 =  ( LENGTH_UNIT(  )NAMED_UNIT( #62 )SI_UNIT( .MILLI., .METRE. ) );
#75 = ADVANCED_FACE( '', ( #94, #95 ), #96, .T. );
#76 = ADVANCED_FACE( '', ( #97, #98 ), #99, .F. );
#77 = ADVANCED_FACE( '', ( #100, #101 ), #102, .F. );
#78 = ADVANCED_FACE( '', ( #103, #104 ), #105, .F. );
#79 = ADVANCED_FACE( '', ( #106, #107 ), #108, .F. );
#80 = ADVANCED_FACE( '', ( #109, #110 ), #111, .F. );
#81 = ADVANCED_FACE( '', ( #112, #113 ), #114, .F. );
#82 = ADVANCED_FACE( '', ( #115, #116 ), #117, .T. );
#83 = ADVANCED_FACE( '', ( #118, #119 ), #120, .F. );
#84 = ADVANCED_FACE( '', ( #121, #122 ), #123, .F. );
#85 = ADVANCED_FACE( '', ( #124, #125 ), #126, .T. );
#86 = ADVANCED_FACE( '', ( #127, #128 ), #129, .T. );
#87 = ADVANCED_FACE( '', ( #130, #131 ), #132, .F. );
#88 = ADVANCED_FACE( '', ( #133, #134 ), #135, .F. );
#89 = ADVANCED_FACE( '', ( #136, #137 ), #138, .F. );
#90 = ADVANCED_FACE( '', ( #139, #140 ), #141, .F. );
#91 = ADVANCED_FACE( '', ( #142, #143 ), #144, .F. );
#92 = ADVANCED_FACE( '', ( #145, #146 ), #147, .T. );
#94 = FACE_OUTER_BOUND( '', #148, .T. );
#95 = FACE_BOUND( '', #149, .T. );
#96 = CONICAL_SURFACE( '', #150, 21.5000000000000, 0.785398163397448 );
#97 = FACE_OUTER_BOUND( '', #151, .T. );
#98 = FACE_BOUND( '', #152, .T. );
#99 = CONICAL_SURFACE( '', #153, 13.5000000000000, 0.785398163397443 );
#100 = FACE_OUTER_BOUND( '', #154, .T. );
#101 = FACE_BOUND( '', #155, .T. );
#102 = PLANE( '', #156 );
#103 = FACE_OUTER_BOUND( '', #157, .T. );
#104 = FACE_BOUND( '', #158, .T. );
#105 = CONICAL_SURFACE( '', #159, 9.00000000000000, 0.785398163397443 );
#106 = FACE_OUTER_BOUND( '', #160, .T. );
#107 = FACE_OUTER_BOUND( '', #161, .T. );
#108 = CYLINDRICAL_SURFACE( '', #162, 15.0500000000000 );
#109 = FACE_OUTER_BOUND( '', #163, .T. );
#110 = FACE_BOUND( '', #164, .T. );
#111 = CONICAL_SURFACE( '', #165, 13.0500000000000, 0.785398163397445 );
#112 = FACE_OUTER_BOUND( '', #166, .T. );
#113 = FACE_OUTER_BOUND( '', #167, .T. );
#114 = CYLINDRICAL_SURFACE( '', #168, 9.00000000000000 );
#115 = FACE_OUTER_BOUND( '', #169, .T. );
#116 = FACE_OUTER_BOUND( '', #170, .T. );
#117 = CYLINDRICAL_SURFACE( '', #171, 14.9750000000000 );
#118 = FACE_OUTER_BOUND( '', #172, .T. );
#119 = FACE_OUTER_BOUND( '', #173, .T. );
#120 = CYLINDRICAL_SURFACE( '', #174, 13.0500000000000 );
#121 = FACE_OUTER_BOUND( '', #175, .T. );
#122 = FACE_BOUND( '', #176, .T. );
#123 = CONICAL_SURFACE( '', #177, 9.50000000000001, 0.785398163397443 );
#124 = FACE_OUTER_BOUND( '', #178, .T. );
#125 = FACE_BOUND( '', #179, .T. );
#126 = CONICAL_SURFACE( '', #180, 14.9750000000000, 0.785398163397447 );
#127 = FACE_OUTER_BOUND( '', #181, .T. );
#128 = FACE_BOUND( '', #182, .T. );
#129 = CONICAL_SURFACE( '', #183, 22.0000000000000, 0.785398163397448 );
#130 = FACE_OUTER_BOUND( '', #184, .T. );
#131 = FACE_OUTER_BOUND( '', #185, .T. );
#132 = CYLINDRICAL_SURFACE( '', #186, 13.5000000000000 );
#133 = FACE_OUTER_BOUND( '', #187, .T. );
#134 = FACE_BOUND( '', #188, .T. );
#135 = PLANE( '', #189 );
#136 = FACE_OUTER_BOUND( '', #190, .T. );
#137 = FACE_BOUND( '', #191, .T. );
#138 = PLANE( '', #192 );
#139 = FACE_OUTER_BOUND( '', #193, .T. );
#140 = FACE_BOUND( '', #194, .T. );
#141 = PLANE( '', #195 );
#142 = FACE_OUTER_BOUND( '', #196, .T. );
#143 = FACE_BOUND( '', #197, .T. );
#144 = PLANE( '', #198 );
#145 = FACE_OUTER_BOUND( '', #199, .T. );
#146 = FACE_OUTER_BOUND( '', #200, .T. );
#147 = CYLINDRICAL_SURFACE( '', #201, 22.0000000000000 );
#148 = EDGE_LOOP( '', ( #202 ) );
#149 = EDGE_LOOP( '', ( #203 ) );
#150 = AXIS2_PLACEMENT_3D( '', #204, #205, #206 );
#151 = EDGE_LOOP( '', ( #207 ) );
#152 = EDGE_LOOP( '', ( #208 ) );
#153 = AXIS2_PLACEMENT_3D( '', #209, #210, #211 );
#154 = EDGE_LOOP( '', ( #212 ) );
#155 = EDGE_LOOP( '', ( #213 ) );
#156 = AXIS2_PLACEMENT_3D( '', #214, #215, #216 );
#157 = EDGE_LOOP( '', ( #217 ) );
#158 = EDGE_LOOP( '', ( #218 ) );
#159 = AXIS2_PLACEMENT_3D( '', #219, #220, #221 );
#160 = EDGE_LOOP( '', ( #222 ) );
#161 = EDGE_LOOP( '', ( #223 ) );
#162 = AXIS2_PLACEMENT_3D( '', #224, #225, #226 );
#163 = EDGE_LOOP( '', ( #227 ) );
#164 = EDGE_LOOP( '', ( #228 ) );
#165 = AXIS2_PLACEMENT_3D( '', #229, #230, #231 );
#166 = EDGE_LOOP( '', ( #232 ) );
#167 = EDGE_LOOP( '', ( #233 ) );
#168 = AXIS2_PLACEMENT_3D( '', #234, #235, #236 );
#169 = EDGE_LOOP( '', ( #237 ) );
#170 = EDGE_LOOP( '', ( #238 ) );
#171 = AXIS2_PLACEMENT_3D( '', #239, #240, #241 );
#172 = EDGE_LOOP( '', ( #242 ) );
#173 = EDGE_LOOP( '', ( #243 ) );
#174 = AXIS2_PLACEMENT_3D( '', #244, #245, #246 );
#175 = EDGE_LOOP( '', ( #247 ) );
#176 = EDGE_LOOP( '', ( #248 ) );
#177 = AXIS2_PLACEMENT_3D( '', #249, #250, #251 );
#178 = EDGE_LOOP( '', ( #252 ) );
#179 = EDGE_LOOP( '', ( #253 ) );
#180 = AXIS2_PLACEMENT_3D( '', #254, #255, #256 );
#181 = EDGE_LOOP( '', ( #257 ) );
#182 = EDGE_LOOP( '', ( #258 ) );
#183 = AXIS2_PLACEMENT_3D( '', #259, #260, #261 );
#184 = EDGE_LOOP( '', ( #262 ) );
#185 = EDGE_LOOP( '', ( #263 ) );
#186 = AXIS2_PLACEMENT_3D( '', #264, #265, #266 );
#187 = EDGE_LOOP( '', ( #267 ) );
#188 = EDGE_LOOP( '', ( #268 ) );
#189 = AXIS2_PLACEMENT_3D( '', #269, #270, #271 );
#190 = EDGE_LOOP( '', ( #272 ) );
#191 = EDGE_LOOP( '', ( #273 ) );
#192 = AXIS2_PLACEMENT_3D( '', #274, #275, #276 );
#193 = EDGE_LOOP( '', ( #277 ) );
#194 = EDGE_LOOP( '', ( #278 ) );
#195 = AXIS2_PLACEMENT_3D( '', #279, #280, #281 );
#196 = EDGE_LOOP( '', ( #282 ) );
#197 = EDGE_LOOP( '', ( #283 ) );
#198 = AXIS2_PLACEMENT_3D( '', #284, #285, #286 );
#199 = EDGE_LOOP( '', ( #287 ) );
#200 = EDGE_LOOP( '', ( #288 ) );
#201 = AXIS2_PLACEMENT_3D( '', #289, #290, #291 );
#202 = ORIENTED_EDGE( '', *, *, #292, .F. );
#203 = ORIENTED_EDGE( '', *, *, #293, .F. );
#204 = CARTESIAN_POINT( '', ( 0.000000000000000, 0.000000000000000, 0.000000000000000 ) );
#205 = DIRECTION( '', ( 6.12323399573677E-017, -0.000000000000000, -1.00000000000000 ) );
#206 = DIRECTION( '', ( -1.00000000000000, 0.000000000000000, -6.12323399573676E-017 ) );
#207 = ORIENTED_EDGE( '', *, *, #294, .F. );
#208 = ORIENTED_EDGE( '', *, *, #295, .F. );
#209 = CARTESIAN_POINT( '', ( 5.81707229594993E-016, 0.000000000000000, -9.50000000000000 ) );
#210 = DIRECTION( '', ( -6.12323399573677E-017, 0.000000000000000, 1.00000000000000 ) );
#211 = DIRECTION( '', ( 1.00000000000000, 0.000000000000000, 6.12323399573677E-017 ) );
#212 = ORIENTED_EDGE( '', *, *, #296, .T. );
#213 = ORIENTED_EDGE( '', *, *, #297, .T. );
#214 = CARTESIAN_POINT( '', ( 3.30654635769785E-015, 9.00000000000000, -54.0000000000000 ) );
#215 = DIRECTION( '', ( 6.12323399573677E-017, 0.000000000000000, -1.00000000000000 ) );
#216 = DIRECTION( '', ( 0.000000000000000, 1.00000000000000, 0.000000000000000 ) );
#217 = ORIENTED_EDGE( '', *, *, #297, .F. );
#218 = ORIENTED_EDGE( '', *, *, #298, .F. );
#219 = CARTESIAN_POINT( '', ( 3.33716252767654E-015, 0.000000000000000, -54.5000000000000 ) );
#220 = DIRECTION( '', ( -6.12323399573676E-017, 0.000000000000000, 1.00000000000000 ) );
#221 = DIRECTION( '', ( 1.00000000000000, 0.000000000000000, 6.12323399573676E-017 ) );
#222 = ORIENTED_EDGE( '', *, *, #299, .T. );
#223 = ORIENTED_EDGE( '', *, *, #300, .F. );
#224 = CARTESIAN_POINT( '', ( 0.000000000000000, 0.000000000000000, 0.000000000000000 ) );
#225 = DIRECTION( '', ( 6.12323399573677E-017, 0.000000000000000, -1.00000000000000 ) );
#226 = DIRECTION( '', ( 1.00000000000000, 0.000000000000000, 6.12323399573677E-017 ) );
#227 = ORIENTED_EDGE( '', *, *, #301, .F. );
#228 = ORIENTED_EDGE( '', *, *, #302, .F. );
#229 = CARTESIAN_POINT( '', ( 2.84730380801760E-015, 0.000000000000000, -46.5000000000000 ) );
#230 = DIRECTION( '', ( -6.12323399573677E-017, 0.000000000000000, 1.00000000000000 ) );
#231 = DIRECTION( '', ( 1.00000000000000, 0.000000000000000, 6.12323399573677E-017 ) );
#232 = ORIENTED_EDGE( '', *, *, #298, .T. );
#233 = ORIENTED_EDGE( '', *, *, #303, .T. );
#234 = CARTESIAN_POINT( '', ( 0.000000000000000, 0.000000000000000, 0.000000000000000 ) );
#235 = DIRECTION( '', ( 6.12323399573676E-017, 0.000000000000000, -1.00000000000000 ) );
#236 = DIRECTION( '', ( 1.00000000000000, 0.000000000000000, 6.12323399573676E-017 ) );
#237 = ORIENTED_EDGE( '', *, *, #304, .F. );
#238 = ORIENTED_EDGE( '', *, *, #305, .T. );
#239 = CARTESIAN_POINT( '', ( 0.000000000000000, 0.000000000000000, 0.000000000000000 ) );
#240 = DIRECTION( '', ( 6.12323399573677E-017, 0.000000000000000, -1.00000000000000 ) );
#241 = DIRECTION( '', ( 1.00000000000000, 0.000000000000000, 6.12323399573677E-017 ) );
#242 = ORIENTED_EDGE( '', *, *, #302, .T. );
#243 = ORIENTED_EDGE( '', *, *, #296, .F. );
#244 = CARTESIAN_POINT( '', ( 0.000000000000000, 0.000000000000000, 0.000000000000000 ) );
#245 = DIRECTION( '', ( 6.12323399573677E-017, 0.000000000000000, -1.00000000000000 ) );
#246 = DIRECTION( '', ( 1.00000000000000, 0.000000000000000, 6.12323399573677E-017 ) );
#247 = ORIENTED_EDGE( '', *, *, #306, .F. );
#248 = ORIENTED_EDGE( '', *, *, #303, .F. );
#249 = CARTESIAN_POINT( '', ( 3.49024337756996E-015, 0.000000000000000, -57.0000000000000 ) );
#250 = DIRECTION( '', ( 6.12323399573677E-017, -0.000000000000000, -1.00000000000000 ) );
#251 = DIRECTION( '', ( -1.00000000000000, 0.000000000000000, -6.12323399573677E-017 ) );
#252 = ORIENTED_EDGE( '', *, *, #305, .F. );
#253 = ORIENTED_EDGE( '', *, *, #307, .F. );
#254 = CARTESIAN_POINT( '', ( 3.45962720759127E-015, 0.000000000000000, -56.5000000000000 ) );
#255 = DIRECTION( '', ( -6.12323399573677E-017, -0.000000000000000, 1.00000000000000 ) );
#256 = DIRECTION( '', ( 1.00000000000000, 0.000000000000000, 6.12323399573677E-017 ) );
#257 = ORIENTED_EDGE( '', *, *, #308, .F. );
#258 = ORIENTED_EDGE( '', *, *, #309, .F. );
#259 = CARTESIAN_POINT( '', ( 7.04171909509729E-016, 0.000000000000000, -11.5000000000000 ) );
#260 = DIRECTION( '', ( -6.12323399573676E-017, -0.000000000000000, 1.00000000000000 ) );
#261 = DIRECTION( '', ( 1.00000000000000, 0.000000000000000, 6.12323399573677E-017 ) );
#262 = ORIENTED_EDGE( '', *, *, #295, .T. );
#263 = ORIENTED_EDGE( '', *, *, #301, .T. );
#264 = CARTESIAN_POINT( '', ( 0.000000000000000, 0.000000000000000, 0.000000000000000 ) );
#265 = DIRECTION( '', ( 6.12323399573677E-017, 0.000000000000000, -1.00000000000000 ) );
#266 = DIRECTION( '', ( 1.00000000000000, 0.000000000000000, 6.12323399573677E-017 ) );
#267 = ORIENTED_EDGE( '', *, *, #309, .T. );
#268 = ORIENTED_EDGE( '', *, *, #304, .T. );
#269 = CARTESIAN_POINT( '', ( 7.34788079488412E-016, 22.0000000000000, -12.0000000000000 ) );
#270 = DIRECTION( '', ( -6.12323399573677E-017, 0.000000000000000, 1.00000000000000 ) );
#271 = DIRECTION( '', ( 1.00000000000000, 0.000000000000000, 6.12323399573677E-017 ) );
#272 = ORIENTED_EDGE( '', *, *, #307, .T. );
#273 = ORIENTED_EDGE( '', *, *, #306, .T. );
#274 = CARTESIAN_POINT( '', ( 3.49024337756996E-015, 14.9750000000000, -57.0000000000000 ) );
#275 = DIRECTION( '', ( -6.12323399573677E-017, 0.000000000000000, 1.00000000000000 ) );
#276 = DIRECTION( '', ( 1.00000000000000, 0.000000000000000, 6.12323399573677E-017 ) );
#277 = ORIENTED_EDGE( '', *, *, #293, .T. );
#278 = ORIENTED_EDGE( '', *, *, #299, .F. );
#279 = CARTESIAN_POINT( '', ( 0.000000000000000, 15.0500000000000, 0.000000000000000 ) );
#280 = DIRECTION( '', ( 6.12323399573677E-017, 0.000000000000000, -1.00000000000000 ) );
#281 = DIRECTION( '', ( 0.000000000000000, 1.00000000000000, 0.000000000000000 ) );
#282 = ORIENTED_EDGE( '', *, *, #300, .T. );
#283 = ORIENTED_EDGE( '', *, *, #294, .T. );
#284 = CARTESIAN_POINT( '', ( 5.51091059616309E-016, 13.5000000000000, -9.00000000000000 ) );
#285 = DIRECTION( '', ( 6.12323399573677E-017, 0.000000000000000, -1.00000000000000 ) );
#286 = DIRECTION( '', ( 0.000000000000000, 1.00000000000000, 0.000000000000000 ) );
#287 = ORIENTED_EDGE( '', *, *, #292, .T. );
#288 = ORIENTED_EDGE( '', *, *, #308, .T. );
#289 = CARTESIAN_POINT( '', ( 0.000000000000000, 0.000000000000000, 0.000000000000000 ) );
#290 = DIRECTION( '', ( 6.12323399573676E-017, 0.000000000000000, -1.00000000000000 ) );
#291 = DIRECTION( '', ( 1.00000000000000, 0.000000000000000, 6.12323399573677E-017 ) );
#292 = EDGE_CURVE( '', #310, #310, #311, .T. );
#293 = EDGE_CURVE( '', #312, #312, #313, .T. );
#294 = EDGE_CURVE( '', #314, #314, #315, .T. );
#295 = EDGE_CURVE( '', #316, #316, #317, .T. );
#296 = EDGE_CURVE( '', #318, #318, #319, .T. );
#297 = EDGE_CURVE( '', #320, #320, #321, .T. );
#298 = EDGE_CURVE( '', #322, #322, #323, .T. );
#299 = EDGE_CURVE( '', #324, #324, #325, .T. );
#300 = EDGE_CURVE( '', #326, #326, #327, .T. );
#301 = EDGE_CURVE( '', #328, #328, #329, .T. );
#302 = EDGE_CURVE( '', #330, #330, #331, .T. );
#303 = EDGE_CURVE( '', #332, #332, #333, .T. );
#304 = EDGE_CURVE( '', #334, #334, #335, .T. );
#305 = EDGE_CURVE( '', #336, #336, #337, .T. );
#306 = EDGE_CURVE( '', #338, #338, #339, .T. );
#307 = EDGE_CURVE( '', #340, #340, #341, .T. );
#308 = EDGE_CURVE( '', #342, #342, #343, .T. );
#309 = EDGE_CURVE( '', #344, #344, #345, .T. );
#310 = VERTEX_POINT( '', #346 );
#311 = CIRCLE( '', #347, 22.0000000000000 );
#312 = VERTEX_POINT( '', #348 );
#313 = CIRCLE( '', #349, 21.5000000000000 );
#314 = VERTEX_POINT( '', #350 );
#315 = CIRCLE( '', #351, 14.0000000000000 );
#316 = VERTEX_POINT( '', #352 );
#317 = CIRCLE( '', #353, 13.5000000000000 );
#318 = VERTEX_POINT( '', #354 );
#319 = CIRCLE( '', #355, 13.0500000000000 );
#320 = VERTEX_POINT( '', #356 );
#321 = CIRCLE( '', #357, 9.49999999999999 );
#322 = VERTEX_POINT( '', #358 );
#323 = CIRCLE( '', #359, 9.00000000000000 );
#324 = VERTEX_POINT( '', #360 );
#325 = CIRCLE( '', #361, 15.0500000000000 );
#326 = VERTEX_POINT( '', #362 );
#327 = CIRCLE( '', #363, 15.0500000000000 );
#328 = VERTEX_POINT( '', #364 );
#329 = CIRCLE( '', #365, 13.5000000000000 );
#330 = VERTEX_POINT( '', #366 );
#331 = CIRCLE( '', #367, 13.0500000000000 );
#332 = VERTEX_POINT( '', #368 );
#333 = CIRCLE( '', #369, 9.00000000000000 );
#334 = VERTEX_POINT( '', #370 );
#335 = CIRCLE( '', #371, 14.9750000000000 );
#336 = VERTEX_POINT( '', #372 );
#337 = CIRCLE( '', #373, 14.9750000000000 );
#338 = VERTEX_POINT( '', #374 );
#339 = CIRCLE( '', #375, 9.50000000000001 );
#340 = VERTEX_POINT( '', #376 );
#341 = CIRCLE( '', #377, 14.4750000000000 );
#342 = VERTEX_POINT( '', #378 );
#343 = CIRCLE( '', #379, 22.0000000000000 );
#344 = VERTEX_POINT( '', #380 );
#345 = CIRCLE( '', #381, 21.5000000000000 );
#346 = CARTESIAN_POINT( '', ( -22.0000000000000, 0.000000000000000, -0.500000000000023 ) );
#347 = AXIS2_PLACEMENT_3D( '', #382, #383, #384 );
#348 = CARTESIAN_POINT( '', ( -21.5000000000000, 0.000000000000000, -1.31649530908340E-015 ) );
#349 = AXIS2_PLACEMENT_3D( '', #385, #386, #387 );
#350 = CARTESIAN_POINT( '', ( -14.0000000000000, 0.000000000000000, -9.00000000000000 ) );
#351 = AXIS2_PLACEMENT_3D( '', #388, #389, #390 );
#352 = CARTESIAN_POINT( '', ( -13.5000000000000, 0.000000000000000, -9.50000000000000 ) );
#353 = AXIS2_PLACEMENT_3D( '', #391, #392, #393 );
#354 = CARTESIAN_POINT( '', ( 13.0500000000000, 0.000000000000000, -54.0000000000000 ) );
#355 = AXIS2_PLACEMENT_3D( '', #394, #395, #396 );
#356 = CARTESIAN_POINT( '', ( -9.49999999999999, 0.000000000000000, -54.0000000000000 ) );
#357 = AXIS2_PLACEMENT_3D( '', #397, #398, #399 );
#358 = CARTESIAN_POINT( '', ( -9.00000000000000, 0.000000000000000, -54.5000000000000 ) );
#359 = AXIS2_PLACEMENT_3D( '', #400, #401, #402 );
#360 = CARTESIAN_POINT( '', ( 15.0500000000000, 0.000000000000000, 9.21546716358383E-016 ) );
#361 = AXIS2_PLACEMENT_3D( '', #403, #404, #405 );
#362 = CARTESIAN_POINT( '', ( 15.0500000000000, 0.000000000000000, -9.00000000000000 ) );
#363 = AXIS2_PLACEMENT_3D( '', #406, #407, #408 );
#364 = CARTESIAN_POINT( '', ( 13.5000000000000, 0.000000000000000, -46.0500000000000 ) );
#365 = AXIS2_PLACEMENT_3D( '', #409, #410, #411 );
#366 = CARTESIAN_POINT( '', ( -13.0500000000000, 0.000000000000000, -46.5000000000000 ) );
#367 = AXIS2_PLACEMENT_3D( '', #412, #413, #414 );
#368 = CARTESIAN_POINT( '', ( 9.00000000000001, 0.000000000000000, -56.5000000000000 ) );
#369 = AXIS2_PLACEMENT_3D( '', #415, #416, #417 );
#370 = CARTESIAN_POINT( '', ( 14.9750000000000, 0.000000000000000, -12.0000000000000 ) );
#371 = AXIS2_PLACEMENT_3D( '', #418, #419, #420 );
#372 = CARTESIAN_POINT( '', ( 14.9750000000000, 0.000000000000000, -56.5000000000000 ) );
#373 = AXIS2_PLACEMENT_3D( '', #421, #422, #423 );
#374 = CARTESIAN_POINT( '', ( 9.50000000000001, 0.000000000000000, -57.0000000000000 ) );
#375 = AXIS2_PLACEMENT_3D( '', #424, #425, #426 );
#376 = CARTESIAN_POINT( '', ( 14.4750000000000, 0.000000000000000, -57.0000000000000 ) );
#377 = AXIS2_PLACEMENT_3D( '', #427, #428, #429 );
#378 = CARTESIAN_POINT( '', ( 22.0000000000000, 0.000000000000000, -11.5000000000000 ) );
#379 = AXIS2_PLACEMENT_3D( '', #430, #431, #432 );
#380 = CARTESIAN_POINT( '', ( 21.5000000000000, 0.000000000000000, -12.0000000000000 ) );
#381 = AXIS2_PLACEMENT_3D( '', #433, #434, #435 );
#382 = CARTESIAN_POINT( '', ( 3.06161699786851E-017, 0.000000000000000, -0.500000000000021 ) );
#383 = DIRECTION( '', ( 6.12323399573676E-017, 0.000000000000000, -1.00000000000000 ) );
#384 = DIRECTION( '', ( -1.00000000000000, 0.000000000000000, -6.12323399573677E-017 ) );
#385 = CARTESIAN_POINT( '', ( 0.000000000000000, 0.000000000000000, 0.000000000000000 ) );
#386 = DIRECTION( '', ( -6.12323399573677E-017, -0.000000000000000, 1.00000000000000 ) );
#387 = DIRECTION( '', ( -1.00000000000000, 0.000000000000000, -6.12323399573676E-017 ) );
#388 = CARTESIAN_POINT( '', ( 5.51091059616309E-016, 0.000000000000000, -9.00000000000000 ) );
#389 = DIRECTION( '', ( 6.12323399573677E-017, 0.000000000000000, -1.00000000000000 ) );
#390 = DIRECTION( '', ( -1.00000000000000, 0.000000000000000, -6.12323399573677E-017 ) );
#391 = CARTESIAN_POINT( '', ( 5.81707229594993E-016, 0.000000000000000, -9.50000000000000 ) );
#392 = DIRECTION( '', ( -6.12323399573677E-017, 0.000000000000000, 1.00000000000000 ) );
#393 = DIRECTION( '', ( -1.00000000000000, 0.000000000000000, -6.12323399573677E-017 ) );
#394 = CARTESIAN_POINT( '', ( 3.30654635769785E-015, 0.000000000000000, -54.0000000000000 ) );
#395 = DIRECTION( '', ( -6.12323399573677E-017, 0.000000000000000, 1.00000000000000 ) );
#396 = DIRECTION( '', ( 1.00000000000000, 0.000000000000000, 6.12323399573677E-017 ) );
#397 = CARTESIAN_POINT( '', ( 3.30654635769785E-015, 0.000000000000000, -54.0000000000000 ) );
#398 = DIRECTION( '', ( 6.12323399573677E-017, 0.000000000000000, -1.00000000000000 ) );
#399 = DIRECTION( '', ( -1.00000000000000, 0.000000000000000, -6.12323399573677E-017 ) );
#400 = CARTESIAN_POINT( '', ( 3.33716252767654E-015, 0.000000000000000, -54.5000000000000 ) );
#401 = DIRECTION( '', ( -6.12323399573676E-017, 0.000000000000000, 1.00000000000000 ) );
#402 = DIRECTION( '', ( -1.00000000000000, 0.000000000000000, -6.12323399573676E-017 ) );
#403 = CARTESIAN_POINT( '', ( 0.000000000000000, 0.000000000000000, 0.000000000000000 ) );
#404 = DIRECTION( '', ( -6.12323399573677E-017, 0.000000000000000, 1.00000000000000 ) );
#405 = DIRECTION( '', ( 1.00000000000000, 0.000000000000000, 6.12323399573677E-017 ) );
#406 = CARTESIAN_POINT( '', ( 5.51091059616309E-016, 0.000000000000000, -9.00000000000000 ) );
#407 = DIRECTION( '', ( -6.12323399573677E-017, 0.000000000000000, 1.00000000000000 ) );
#408 = DIRECTION( '', ( 1.00000000000000, 0.000000000000000, 6.12323399573677E-017 ) );
#409 = CARTESIAN_POINT( '', ( 2.81974925503678E-015, 0.000000000000000, -46.0500000000000 ) );
#410 = DIRECTION( '', ( 6.12323399573677E-017, 0.000000000000000, -1.00000000000000 ) );
#411 = DIRECTION( '', ( 1.00000000000000, 0.000000000000000, 6.12323399573677E-017 ) );
#412 = CARTESIAN_POINT( '', ( 2.84730380801760E-015, 0.000000000000000, -46.5000000000000 ) );
#413 = DIRECTION( '', ( -6.12323399573677E-017, 0.000000000000000, 1.00000000000000 ) );
#414 = DIRECTION( '', ( -1.00000000000000, 0.000000000000000, -6.12323399573677E-017 ) );
#415 = CARTESIAN_POINT( '', ( 3.45962720759127E-015, 0.000000000000000, -56.5000000000000 ) );
#416 = DIRECTION( '', ( 6.12323399573676E-017, 0.000000000000000, -1.00000000000000 ) );
#417 = DIRECTION( '', ( 1.00000000000000, 0.000000000000000, 6.12323399573676E-017 ) );
#418 = CARTESIAN_POINT( '', ( 7.34788079488412E-016, 0.000000000000000, -12.0000000000000 ) );
#419 = DIRECTION( '', ( -6.12323399573677E-017, 0.000000000000000, 1.00000000000000 ) );
#420 = DIRECTION( '', ( 1.00000000000000, 0.000000000000000, 6.12323399573677E-017 ) );
#421 = CARTESIAN_POINT( '', ( 3.45962720759127E-015, 0.000000000000000, -56.5000000000000 ) );
#422 = DIRECTION( '', ( -6.12323399573677E-017, 0.000000000000000, 1.00000000000000 ) );
#423 = DIRECTION( '', ( 1.00000000000000, 0.000000000000000, 6.12323399573677E-017 ) );
#424 = CARTESIAN_POINT( '', ( 3.49024337756996E-015, 0.000000000000000, -57.0000000000000 ) );
#425 = DIRECTION( '', ( -6.12323399573677E-017, 0.000000000000000, 1.00000000000000 ) );
#426 = DIRECTION( '', ( 1.00000000000000, 0.000000000000000, 6.12323399573677E-017 ) );
#427 = CARTESIAN_POINT( '', ( 3.49024337756996E-015, 0.000000000000000, -57.0000000000000 ) );
#428 = DIRECTION( '', ( 6.12323399573677E-017, 0.000000000000000, -1.00000000000000 ) );
#429 = DIRECTION( '', ( 1.00000000000000, 0.000000000000000, 6.12323399573677E-017 ) );
#430 = CARTESIAN_POINT( '', ( 7.04171909509729E-016, 0.000000000000000, -11.5000000000000 ) );
#431 = DIRECTION( '', ( -6.12323399573676E-017, 0.000000000000000, 1.00000000000000 ) );
#432 = DIRECTION( '', ( 1.00000000000000, 0.000000000000000, 6.12323399573677E-017 ) );
#433 = CARTESIAN_POINT( '', ( 7.34788079488412E-016, 0.000000000000000, -12.0000000000000 ) );
#434 = DIRECTION( '', ( 6.12323399573677E-017, 0.000000000000000, -1.00000000000000 ) );
#435 = DIRECTION( '', ( 1.00000000000000, 0.000000000000000, 6.12323399573677E-017 ) );
ENDSEC;
END-ISO-10303-21;
