ISO-10303-21;
HEADER;
FILE_DESCRIPTION (( 'STEP AP214' ),
    '1' );
FILE_NAME ('AluminumX2.STEP',
    '2021-11-10T08:45:46',
    ( '' ),
    ( '' ),
    'SwSTEP 2.0',
    'SolidWorks 2017',
    '' );
FILE_SCHEMA (( 'AUTOMOTIVE_DESIGN' ));
ENDSEC;

DATA;
#1 = DIRECTION ( 'NONE',  ( -1.000000000000000000, 0.0000000000000000000, 0.0000000000000000000 ) ) ;
#2 = ORIENTED_EDGE ( 'NONE', *, *, #177, .T. ) ;
#3 = FACE_OUTER_BOUND ( 'NONE', #8, .T. ) ;
#4 = DIRECTION ( 'NONE',  ( 0.0000000000000000000, 0.0000000000000000000, 1.000000000000000000 ) ) ;
#5 = APPLICATION_PROTOCOL_DEFINITION ( 'draft international standard', 'automotive_design', 1998, #191 ) ;
#6 = ORIENTED_EDGE ( 'NONE', *, *, #31, .T. ) ;
#7 = CIRCLE ( 'NONE', #57, 20.00000000000000000 ) ;
#8 = EDGE_LOOP ( 'NONE', ( #186, #158 ) ) ;
#9 = AXIS2_PLACEMENT_3D ( 'NONE', #55, #190, #39 ) ;
#10 = ORIENTED_EDGE ( 'NONE', *, *, #175, .T. ) ;
#11 = FILL_AREA_STYLE ('',( #67 ) ) ;
#12 = CIRCLE ( 'NONE', #118, 3.000000000000000400 ) ;
#13 = ORIENTED_EDGE ( 'NONE', *, *, #40, .F. ) ;
#14 = VECTOR ( 'NONE', #135, 1000.000000000000000 ) ;
#15 = EDGE_CURVE ( 'NONE', #51, #194, #71, .T. ) ;
#16 = DIRECTION ( 'NONE',  ( -0.0000000000000000000, -0.0000000000000000000, -1.000000000000000000 ) ) ;
#17 = EDGE_LOOP ( 'NONE', ( #114, #2, #137, #179 ) ) ;
#18 = PRODUCT_DEFINITION ( 'Î´Öª', '', #24, #26 ) ;
#19 =( NAMED_UNIT ( * ) SI_UNIT ( $, .STERADIAN. ) SOLID_ANGLE_UNIT ( ) );
#20 = EDGE_LOOP ( 'NONE', ( #89, #143 ) ) ;
#21 = AXIS2_PLACEMENT_3D ( 'NONE', #36, #124, #153 ) ;
#22 =( NAMED_UNIT ( * ) SI_UNIT ( $, .STERADIAN. ) SOLID_ANGLE_UNIT ( ) );
#23 =( LENGTH_UNIT ( ) NAMED_UNIT ( * ) SI_UNIT ( .MILLI., .METRE. ) );
#24 = PRODUCT_DEFINITION_FORMATION_WITH_SPECIFIED_SOURCE ( 'ÈÎºÎ', '', #159, .NOT_KNOWN. ) ;
#25 = EDGE_LOOP ( 'NONE', ( #210, #6, #10, #156 ) ) ;
#26 = PRODUCT_DEFINITION_CONTEXT ( 'detailed design', #173, 'design' ) ;
#27 = AXIS2_PLACEMENT_3D ( 'NONE', #96, #211, #120 ) ;
#28 = CLOSED_SHELL ( 'NONE', ( #170, #37, #53, #104, #139, #101 ) ) ;
#29 = LINE ( 'NONE', #73, #115 ) ;
#30 = MANIFOLD_SOLID_BREP ( 'Í¹Ì¨-À­Éì2', #28 ) ;
#31 = EDGE_CURVE ( 'NONE', #125, #194, #99, .T. ) ;
#32 = COLOUR_RGB ( '',1.000000000000000000, 1.000000000000000000, 1.000000000000000000 ) ;
#33 = FACE_BOUND ( 'NONE', #176, .T. ) ;
#34 = AXIS2_PLACEMENT_3D ( 'NONE', #127, #183, #84 ) ;
#35 = DIRECTION ( 'NONE',  ( -0.0000000000000000000, -0.0000000000000000000, -1.000000000000000000 ) ) ;
#36 = CARTESIAN_POINT ( 'NONE',  ( 0.0000000000000000000, 0.0000000000000000000, 20.00000000000000000 ) ) ;
#37 = ADVANCED_FACE ( 'NONE', ( #196 ), #161, .T. ) ;
#38 = APPLICATION_PROTOCOL_DEFINITION ( 'draft international standard', 'automotive_design', 1998, #173 ) ;
#39 = DIRECTION ( 'NONE',  ( 1.000000000000000000, 0.0000000000000000000, 0.0000000000000000000 ) ) ;
#40 = EDGE_CURVE ( 'NONE', #58, #174, #93, .T. ) ;
#41 = SURFACE_STYLE_USAGE ( .BOTH. , #87 ) ;
#42 = ORIENTED_EDGE ( 'NONE', *, *, #175, .F. ) ;
#43 = EDGE_CURVE ( 'NONE', #95, #51, #178, .T. ) ;
#44 = FACE_OUTER_BOUND ( 'NONE', #208, .T. ) ;
#45 = EDGE_LOOP ( 'NONE', ( #134, #149, #160, #107 ) ) ;
#46 =( GEOMETRIC_REPRESENTATION_CONTEXT ( 3 ) GLOBAL_UNCERTAINTY_ASSIGNED_CONTEXT ( ( #62 ) ) GLOBAL_UNIT_ASSIGNED_CONTEXT ( ( #72, #154, #19 ) ) REPRESENTATION_CONTEXT ( 'NONE', 'WORKASPACE' ) );
#47 = ORIENTED_EDGE ( 'NONE', *, *, #15, .F. ) ;
#48 = AXIS2_PLACEMENT_3D ( 'NONE', #102, #122, #168 ) ;
#49 = PRODUCT_DEFINITION_SHAPE ( 'NONE', 'NONE',  #18 ) ;
#50 = PLANE ( 'NONE',  #34 ) ;
#51 = VERTEX_POINT ( 'NONE', #198 ) ;
#52 = CARTESIAN_POINT ( 'NONE',  ( 0.0000000000000000000, 0.0000000000000000000, 0.0000000000000000000 ) ) ;
#53 = ADVANCED_FACE ( 'NONE', ( #3, #33 ), #105, .T. ) ;
#54 = CARTESIAN_POINT ( 'NONE',  ( 3.000000000000000400, 3.673940397442060400E-016, 20.00000000000000000 ) ) ;
#55 = CARTESIAN_POINT ( 'NONE',  ( 0.0000000000000000000, 0.0000000000000000000, 20.00000000000000000 ) ) ;
#56 = CIRCLE ( 'NONE', #150, 20.00000000000000000 ) ;
#57 = AXIS2_PLACEMENT_3D ( 'NONE', #61, #4, #145 ) ;
#58 = VERTEX_POINT ( 'NONE', #103 ) ;
#59 = CYLINDRICAL_SURFACE ( 'NONE', #21, 3.000000000000000400 ) ;
#60 = FILL_AREA_STYLE_COLOUR ( '', #201 ) ;
#61 = CARTESIAN_POINT ( 'NONE',  ( 0.0000000000000000000, 0.0000000000000000000, 20.00000000000000000 ) ) ;
#62 = UNCERTAINTY_MEASURE_WITH_UNIT (LENGTH_MEASURE( 1.000000000000000100E-005 ), #72, 'distance_accuracy_value', 'NONE');
#63 = EDGE_LOOP ( 'NONE', ( #47, #42 ) ) ;
#64 = AXIS2_PLACEMENT_3D ( 'NONE', #80, #136, #1 ) ;
#65 = VECTOR ( 'NONE', #35, 1000.000000000000000 ) ;
#66 = ORIENTED_EDGE ( 'NONE', *, *, #148, .T. ) ;
#67 = FILL_AREA_STYLE_COLOUR ( '', #32 ) ;
#68 = VERTEX_POINT ( 'NONE', #200 ) ;
#69 = FACE_OUTER_BOUND ( 'NONE', #17, .T. ) ;
#70 = STYLED_ITEM ( 'NONE', ( #116 ), #180 ) ;
#71 = CIRCLE ( 'NONE', #27, 20.00000000000000000 ) ;
#72 =( LENGTH_UNIT ( ) NAMED_UNIT ( * ) SI_UNIT ( .MILLI., .METRE. ) );
#73 = CARTESIAN_POINT ( 'NONE',  ( -3.000000000000000400, 0.0000000000000000000, 20.00000000000000000 ) ) ;
#74 = DIRECTION ( 'NONE',  ( -0.0000000000000000000, -0.0000000000000000000, -1.000000000000000000 ) ) ;
#75 = ORIENTED_EDGE ( 'NONE', *, *, #214, .T. ) ;
#76 = CARTESIAN_POINT ( 'NONE',  ( 3.000000000000000400, 3.673940397442060400E-016, 0.0000000000000000000 ) ) ;
#77 = DIRECTION ( 'NONE',  ( 1.000000000000000000, 0.0000000000000000000, 0.0000000000000000000 ) ) ;
#78 =( NAMED_UNIT ( * ) PLANE_ANGLE_UNIT ( ) SI_UNIT ( $, .RADIAN. ) );
#79 = AXIS2_PLACEMENT_3D ( 'NONE', #151, #199, #166 ) ;
#80 = CARTESIAN_POINT ( 'NONE',  ( 0.0000000000000000000, 0.0000000000000000000, 20.00000000000000000 ) ) ;
#81 = DIRECTION ( 'NONE',  ( -1.000000000000000000, 0.0000000000000000000, 0.0000000000000000000 ) ) ;
#82 = DIRECTION ( 'NONE',  ( 1.000000000000000000, 0.0000000000000000000, 0.0000000000000000000 ) ) ;
#83 = DIRECTION ( 'NONE',  ( 0.0000000000000000000, 0.0000000000000000000, 1.000000000000000000 ) ) ;
#84 = DIRECTION ( 'NONE',  ( 1.000000000000000000, 0.0000000000000000000, -0.0000000000000000000 ) ) ;
#85 = DIRECTION ( 'NONE',  ( 0.0000000000000000000, 0.0000000000000000000, 1.000000000000000000 ) ) ;
#86 = UNCERTAINTY_MEASURE_WITH_UNIT (LENGTH_MEASURE( 1.000000000000000100E-005 ), #109, 'distance_accuracy_value', 'NONE');
#87 = SURFACE_SIDE_STYLE ('',( #91 ) ) ;
#88 =( GEOMETRIC_REPRESENTATION_CONTEXT ( 3 ) GLOBAL_UNCERTAINTY_ASSIGNED_CONTEXT ( ( #86 ) ) GLOBAL_UNIT_ASSIGNED_CONTEXT ( ( #109, #142, #169 ) ) REPRESENTATION_CONTEXT ( 'NONE', 'WORKASPACE' ) );
#89 = ORIENTED_EDGE ( 'NONE', *, *, #40, .T. ) ;
#90 =( GEOMETRIC_REPRESENTATION_CONTEXT ( 3 ) GLOBAL_UNCERTAINTY_ASSIGNED_CONTEXT ( ( #128 ) ) GLOBAL_UNIT_ASSIGNED_CONTEXT ( ( #23, #78, #22 ) ) REPRESENTATION_CONTEXT ( 'NONE', 'WORKASPACE' ) );
#91 = SURFACE_STYLE_FILL_AREA ( #205 ) ;
#92 = PRESENTATION_LAYER_ASSIGNMENT (  '', '', ( #70 ) ) ;
#93 = CIRCLE ( 'NONE', #193, 3.000000000000000400 ) ;
#94 = EDGE_CURVE ( 'NONE', #68, #58, #29, .T. ) ;
#95 = VERTEX_POINT ( 'NONE', #123 ) ;
#96 = CARTESIAN_POINT ( 'NONE',  ( 0.0000000000000000000, 0.0000000000000000000, 0.0000000000000000000 ) ) ;
#97 = SURFACE_SIDE_STYLE ('',( #117 ) ) ;
#98 = LINE ( 'NONE', #54, #65 ) ;
#99 = LINE ( 'NONE', #164, #126 ) ;
#100 = EDGE_CURVE ( 'NONE', #125, #95, #197, .T. ) ;
#101 = ADVANCED_FACE ( 'NONE', ( #69 ), #59, .F. ) ;
#102 = CARTESIAN_POINT ( 'NONE',  ( 0.0000000000000000000, 0.0000000000000000000, 20.00000000000000000 ) ) ;
#103 = CARTESIAN_POINT ( 'NONE',  ( -3.000000000000000400, 0.0000000000000000000, 0.0000000000000000000 ) ) ;
#104 = ADVANCED_FACE ( 'NONE', ( #119, #113 ), #50, .F. ) ;
#105 = PLANE ( 'NONE',  #48 ) ;
#106 = CYLINDRICAL_SURFACE ( 'NONE', #146, 20.00000000000000000 ) ;
#107 = ORIENTED_EDGE ( 'NONE', *, *, #15, .T. ) ;
#108 = DIRECTION ( 'NONE',  ( 1.000000000000000000, 0.0000000000000000000, 0.0000000000000000000 ) ) ;
#109 =( LENGTH_UNIT ( ) NAMED_UNIT ( * ) SI_UNIT ( .MILLI., .METRE. ) );
#110 = ORIENTED_EDGE ( 'NONE', *, *, #94, .F. ) ;
#111 = CARTESIAN_POINT ( 'NONE',  ( 0.0000000000000000000, 0.0000000000000000000, 0.0000000000000000000 ) ) ;
#112 = AXIS2_PLACEMENT_3D ( 'NONE', #141, #157, #203 ) ;
#113 = FACE_BOUND ( 'NONE', #20, .T. ) ;
#114 = ORIENTED_EDGE ( 'NONE', *, *, #148, .F. ) ;
#115 = VECTOR ( 'NONE', #74, 1000.000000000000000 ) ;
#116 = PRESENTATION_STYLE_ASSIGNMENT (( #41 ) ) ;
#117 = SURFACE_STYLE_FILL_AREA ( #11 ) ;
#118 = AXIS2_PLACEMENT_3D ( 'NONE', #129, #207, #204 ) ;
#119 = FACE_OUTER_BOUND ( 'NONE', #63, .T. ) ;
#120 = DIRECTION ( 'NONE',  ( 1.000000000000000000, 0.0000000000000000000, 0.0000000000000000000 ) ) ;
#121 = SHAPE_DEFINITION_REPRESENTATION ( #49, #180 ) ;
#122 = DIRECTION ( 'NONE',  ( 0.0000000000000000000, 0.0000000000000000000, 1.000000000000000000 ) ) ;
#123 = CARTESIAN_POINT ( 'NONE',  ( -20.00000000000000000, 0.0000000000000000000, 20.00000000000000000 ) ) ;
#124 = DIRECTION ( 'NONE',  ( -0.0000000000000000000, -0.0000000000000000000, -1.000000000000000000 ) ) ;
#125 = VERTEX_POINT ( 'NONE', #202 ) ;
#126 = VECTOR ( 'NONE', #140, 1000.000000000000000 ) ;
#127 = CARTESIAN_POINT ( 'NONE',  ( 0.0000000000000000000, 0.0000000000000000000, 0.0000000000000000000 ) ) ;
#128 = UNCERTAINTY_MEASURE_WITH_UNIT (LENGTH_MEASURE( 1.000000000000000100E-005 ), #23, 'distance_accuracy_value', 'NONE');
#129 = CARTESIAN_POINT ( 'NONE',  ( 0.0000000000000000000, 0.0000000000000000000, 20.00000000000000000 ) ) ;
#130 = PRODUCT_CONTEXT ( 'NONE', #191, 'mechanical' ) ;
#131 = PRODUCT_RELATED_PRODUCT_CATEGORY ( 'part', '', ( #159 ) ) ;
#132 = CIRCLE ( 'NONE', #9, 3.000000000000000400 ) ;
#133 = AXIS2_PLACEMENT_3D ( 'NONE', #138, #165, #81 ) ;
#134 = ORIENTED_EDGE ( 'NONE', *, *, #31, .F. ) ;
#135 = DIRECTION ( 'NONE',  ( -0.0000000000000000000, -0.0000000000000000000, -1.000000000000000000 ) ) ;
#136 = DIRECTION ( 'NONE',  ( -0.0000000000000000000, -0.0000000000000000000, -1.000000000000000000 ) ) ;
#137 = ORIENTED_EDGE ( 'NONE', *, *, #94, .T. ) ;
#138 = CARTESIAN_POINT ( 'NONE',  ( 0.0000000000000000000, 0.0000000000000000000, 20.00000000000000000 ) ) ;
#139 = ADVANCED_FACE ( 'NONE', ( #171 ), #106, .T. ) ;
#140 = DIRECTION ( 'NONE',  ( -0.0000000000000000000, -0.0000000000000000000, -1.000000000000000000 ) ) ;
#141 = CARTESIAN_POINT ( 'NONE',  ( 0.0000000000000000000, 0.0000000000000000000, 0.0000000000000000000 ) ) ;
#142 =( NAMED_UNIT ( * ) PLANE_ANGLE_UNIT ( ) SI_UNIT ( $, .RADIAN. ) );
#143 = ORIENTED_EDGE ( 'NONE', *, *, #162, .T. ) ;
#144 = CARTESIAN_POINT ( 'NONE',  ( 20.00000000000000000, 2.449293598294706500E-015, 0.0000000000000000000 ) ) ;
#145 = DIRECTION ( 'NONE',  ( 1.000000000000000000, 0.0000000000000000000, 0.0000000000000000000 ) ) ;
#146 = AXIS2_PLACEMENT_3D ( 'NONE', #167, #16, #155 ) ;
#147 = VERTEX_POINT ( 'NONE', #184 ) ;
#148 = EDGE_CURVE ( 'NONE', #147, #174, #98, .T. ) ;
#149 = ORIENTED_EDGE ( 'NONE', *, *, #195, .F. ) ;
#150 = AXIS2_PLACEMENT_3D ( 'NONE', #192, #188, #77 ) ;
#151 = CARTESIAN_POINT ( 'NONE',  ( 0.0000000000000000000, 0.0000000000000000000, 20.00000000000000000 ) ) ;
#152 = PRESENTATION_STYLE_ASSIGNMENT (( #212 ) ) ;
#153 = DIRECTION ( 'NONE',  ( -1.000000000000000000, 0.0000000000000000000, 0.0000000000000000000 ) ) ;
#154 =( NAMED_UNIT ( * ) PLANE_ANGLE_UNIT ( ) SI_UNIT ( $, .RADIAN. ) );
#155 = DIRECTION ( 'NONE',  ( -1.000000000000000000, 0.0000000000000000000, 0.0000000000000000000 ) ) ;
#156 = ORIENTED_EDGE ( 'NONE', *, *, #43, .F. ) ;
#157 = DIRECTION ( 'NONE',  ( 0.0000000000000000000, 0.0000000000000000000, 1.000000000000000000 ) ) ;
#158 = ORIENTED_EDGE ( 'NONE', *, *, #100, .T. ) ;
#159 = PRODUCT ( 'AluminumX2', 'AluminumX2', '', ( #130 ) ) ;
#160 = ORIENTED_EDGE ( 'NONE', *, *, #43, .T. ) ;
#161 = CYLINDRICAL_SURFACE ( 'NONE', #64, 20.00000000000000000 ) ;
#162 = EDGE_CURVE ( 'NONE', #174, #58, #185, .T. ) ;
#163 = MECHANICAL_DESIGN_GEOMETRIC_PRESENTATION_REPRESENTATION (  '', ( #70 ), #88 ) ;
#164 = CARTESIAN_POINT ( 'NONE',  ( 20.00000000000000000, 2.449293598294706500E-015, 20.00000000000000000 ) ) ;
#165 = DIRECTION ( 'NONE',  ( -0.0000000000000000000, -0.0000000000000000000, -1.000000000000000000 ) ) ;
#166 = DIRECTION ( 'NONE',  ( 1.000000000000000000, 0.0000000000000000000, 0.0000000000000000000 ) ) ;
#167 = CARTESIAN_POINT ( 'NONE',  ( 0.0000000000000000000, 0.0000000000000000000, 20.00000000000000000 ) ) ;
#168 = DIRECTION ( 'NONE',  ( 1.000000000000000000, 0.0000000000000000000, -0.0000000000000000000 ) ) ;
#169 =( NAMED_UNIT ( * ) SI_UNIT ( $, .STERADIAN. ) SOLID_ANGLE_UNIT ( ) );
#170 = ADVANCED_FACE ( 'NONE', ( #44 ), #187, .F. ) ;
#171 = FACE_OUTER_BOUND ( 'NONE', #45, .T. ) ;
#172 = STYLED_ITEM ( 'NONE', ( #152 ), #30 ) ;
#173 = APPLICATION_CONTEXT ( 'automotive_design' ) ;
#174 = VERTEX_POINT ( 'NONE', #76 ) ;
#175 = EDGE_CURVE ( 'NONE', #194, #51, #56, .T. ) ;
#176 = EDGE_LOOP ( 'NONE', ( #213, #181 ) ) ;
#177 = EDGE_CURVE ( 'NONE', #147, #68, #12, .T. ) ;
#178 = LINE ( 'NONE', #182, #14 ) ;
#179 = ORIENTED_EDGE ( 'NONE', *, *, #162, .F. ) ;
#180 = ADVANCED_BREP_SHAPE_REPRESENTATION ( 'AluminumX2', ( #30, #112 ), #90 ) ;
#181 = ORIENTED_EDGE ( 'NONE', *, *, #177, .F. ) ;
#182 = CARTESIAN_POINT ( 'NONE',  ( -20.00000000000000000, 0.0000000000000000000, 20.00000000000000000 ) ) ;
#183 = DIRECTION ( 'NONE',  ( 0.0000000000000000000, 0.0000000000000000000, 1.000000000000000000 ) ) ;
#184 = CARTESIAN_POINT ( 'NONE',  ( 3.000000000000000400, 3.673940397442060400E-016, 20.00000000000000000 ) ) ;
#185 = CIRCLE ( 'NONE', #209, 3.000000000000000400 ) ;
#186 = ORIENTED_EDGE ( 'NONE', *, *, #195, .T. ) ;
#187 = CYLINDRICAL_SURFACE ( 'NONE', #133, 3.000000000000000400 ) ;
#188 = DIRECTION ( 'NONE',  ( 0.0000000000000000000, 0.0000000000000000000, 1.000000000000000000 ) ) ;
#189 = PRESENTATION_LAYER_ASSIGNMENT (  '', '', ( #172 ) ) ;
#190 = DIRECTION ( 'NONE',  ( 0.0000000000000000000, 0.0000000000000000000, 1.000000000000000000 ) ) ;
#191 = APPLICATION_CONTEXT ( 'automotive_design' ) ;
#192 = CARTESIAN_POINT ( 'NONE',  ( 0.0000000000000000000, 0.0000000000000000000, 0.0000000000000000000 ) ) ;
#193 = AXIS2_PLACEMENT_3D ( 'NONE', #52, #83, #82 ) ;
#194 = VERTEX_POINT ( 'NONE', #144 ) ;
#195 = EDGE_CURVE ( 'NONE', #95, #125, #7, .T. ) ;
#196 = FACE_OUTER_BOUND ( 'NONE', #25, .T. ) ;
#197 = CIRCLE ( 'NONE', #79, 20.00000000000000000 ) ;
#198 = CARTESIAN_POINT ( 'NONE',  ( -20.00000000000000000, 0.0000000000000000000, 0.0000000000000000000 ) ) ;
#199 = DIRECTION ( 'NONE',  ( 0.0000000000000000000, 0.0000000000000000000, 1.000000000000000000 ) ) ;
#200 = CARTESIAN_POINT ( 'NONE',  ( -3.000000000000000400, 0.0000000000000000000, 20.00000000000000000 ) ) ;
#201 = COLOUR_RGB ( '',1.000000000000000000, 1.000000000000000000, 1.000000000000000000 ) ;
#202 = CARTESIAN_POINT ( 'NONE',  ( 20.00000000000000000, 2.449293598294706500E-015, 20.00000000000000000 ) ) ;
#203 = DIRECTION ( 'NONE',  ( 1.000000000000000000, 0.0000000000000000000, 0.0000000000000000000 ) ) ;
#204 = DIRECTION ( 'NONE',  ( 1.000000000000000000, 0.0000000000000000000, 0.0000000000000000000 ) ) ;
#205 = FILL_AREA_STYLE ('',( #60 ) ) ;
#206 = MECHANICAL_DESIGN_GEOMETRIC_PRESENTATION_REPRESENTATION (  '', ( #172 ), #46 ) ;
#207 = DIRECTION ( 'NONE',  ( 0.0000000000000000000, 0.0000000000000000000, 1.000000000000000000 ) ) ;
#208 = EDGE_LOOP ( 'NONE', ( #75, #66, #13, #110 ) ) ;
#209 = AXIS2_PLACEMENT_3D ( 'NONE', #111, #85, #108 ) ;
#210 = ORIENTED_EDGE ( 'NONE', *, *, #100, .F. ) ;
#211 = DIRECTION ( 'NONE',  ( 0.0000000000000000000, 0.0000000000000000000, 1.000000000000000000 ) ) ;
#212 = SURFACE_STYLE_USAGE ( .BOTH. , #97 ) ;
#213 = ORIENTED_EDGE ( 'NONE', *, *, #214, .F. ) ;
#214 = EDGE_CURVE ( 'NONE', #68, #147, #132, .T. ) ;
ENDSEC;
END-ISO-10303-21;
