ISO-10303-21;
HEADER;
FILE_DESCRIPTION(('CATIA V5 STEP Exchange'),'2;1');

FILE_NAME('C:\\Users\\Leclerc\\Desktop\\SANOFI F.LEGAND cale r\X2\00E9\X0\glable\\cale inferieure.stp','2021-11-23T18:04:52+00:00',('none'),('none'),'CATIA Version 5 Release 17 (IN-10)','CATIA V5 STEP AP203','none');

FILE_SCHEMA(('CONFIG_CONTROL_DESIGN'));

ENDSEC;
/* file written by CATIA V5R17 */
DATA;
#5=PRODUCT('cale inferieure','','',(#2)) ;
#1=APPLICATION_CONTEXT('configuration controlled 3D design of mechanical parts and assemblies') ;
#14=PRODUCT_DEFINITION(' ',' ',#6,#3) ;
#16=SECURITY_CLASSIFICATION(' ',' ',#15) ;
#15=SECURITY_CLASSIFICATION_LEVEL('unclassified') ;
#47=CARTESIAN_POINT(' ',(0.,0.,0.)) ;
#52=CARTESIAN_POINT('Axis2P3D Location',(0.,-27.5,0.)) ;
#57=CARTESIAN_POINT('Line Origine',(52.5,-27.5,0.)) ;
#61=CARTESIAN_POINT('Vertex',(105.,-27.5,0.)) ;
#63=CARTESIAN_POINT('Vertex',(0.,-27.5,0.)) ;
#66=CARTESIAN_POINT('Line Origine',(105.,-27.5,9.5)) ;
#70=CARTESIAN_POINT('Vertex',(105.,-27.5,19.)) ;
#73=CARTESIAN_POINT('Line Origine',(52.5,-27.5,13.4820276486)) ;
#77=CARTESIAN_POINT('Vertex',(0.,-27.5,7.9640552971)) ;
#80=CARTESIAN_POINT('Line Origine',(0.,-27.5,3.98202764855)) ;
#92=CARTESIAN_POINT('Axis2P3D Location',(0.,27.5,0.)) ;
#97=CARTESIAN_POINT('Line Origine',(0.,27.5,3.98202764855)) ;
#101=CARTESIAN_POINT('Vertex',(0.,27.5,0.)) ;
#103=CARTESIAN_POINT('Vertex',(0.,27.5,7.9640552971)) ;
#106=CARTESIAN_POINT('Line Origine',(52.5,27.5,13.4820276486)) ;
#110=CARTESIAN_POINT('Vertex',(105.,27.5,19.)) ;
#113=CARTESIAN_POINT('Line Origine',(105.,27.5,9.5)) ;
#117=CARTESIAN_POINT('Vertex',(105.,27.5,0.)) ;
#120=CARTESIAN_POINT('Line Origine',(52.5,27.5,0.)) ;
#132=CARTESIAN_POINT('Axis2P3D Location',(105.,0.,0.)) ;
#137=CARTESIAN_POINT('Line Origine',(105.,-16.,17.2403605108)) ;
#141=CARTESIAN_POINT('Vertex',(105.,-16.,19.)) ;
#143=CARTESIAN_POINT('Vertex',(105.,-16.,15.4807210215)) ;
#146=CARTESIAN_POINT('Line Origine',(105.,-19.,15.4807210215)) ;
#150=CARTESIAN_POINT('Vertex',(105.,-22.,15.4807210215)) ;
#153=CARTESIAN_POINT('Line Origine',(105.,-22.,17.2403605108)) ;
#157=CARTESIAN_POINT('Vertex',(105.,-22.,19.)) ;
#160=CARTESIAN_POINT('Line Origine',(105.,-24.75,19.)) ;
#165=CARTESIAN_POINT('Line Origine',(105.,0.,0.)) ;
#170=CARTESIAN_POINT('Line Origine',(105.,5.75,19.)) ;
#186=CARTESIAN_POINT('Axis2P3D Location',(105.,0.,19.)) ;
#191=CARTESIAN_POINT('Line Origine',(52.5,-22.,13.4820276486)) ;
#195=CARTESIAN_POINT('Vertex',(0.,-22.,7.9640552971)) ;
#198=CARTESIAN_POINT('Line Origine',(0.,-24.75,7.9640552971)) ;
#210=CARTESIAN_POINT('Axis2P3D Location',(0.,0.,7.9640552971)) ;
#215=CARTESIAN_POINT('Line Origine',(0.,-22.,6.20441580787)) ;
#219=CARTESIAN_POINT('Vertex',(-2.60902410787E-015,-22.,4.44477631863)) ;
#222=CARTESIAN_POINT('Line Origine',(0.,-19.,4.44477631863)) ;
#226=CARTESIAN_POINT('Vertex',(-2.7366997557E-014,-16.,4.44477631863)) ;
#229=CARTESIAN_POINT('Line Origine',(0.,-16.,6.20441580787)) ;
#233=CARTESIAN_POINT('Vertex',(0.,-16.,7.9640552971)) ;
#236=CARTESIAN_POINT('Line Origine',(0.,5.75,7.9640552971)) ;
#241=CARTESIAN_POINT('Line Origine',(0.,0.,0.)) ;
#257=CARTESIAN_POINT('Axis2P3D Location',(-0.462060479857,0.,4.39621180525)) ;
#262=CARTESIAN_POINT('Line Origine',(52.5,-22.,9.96274867008)) ;
#267=CARTESIAN_POINT('Line Origine',(52.5,-16.,9.96274867008)) ;
#279=CARTESIAN_POINT('Axis2P3D Location',(-21.8152259104,-22.,5.67118266065)) ;
#291=CARTESIAN_POINT('Axis2P3D Location',(108.967442466,-16.,19.4169950063)) ;
#296=CARTESIAN_POINT('Line Origine',(52.5,-16.,13.4820276486)) ;
#315=CARTESIAN_POINT('Control Point',(62.5,-2.22044604925E-015,14.5330700012)) ;
#316=CARTESIAN_POINT('Control Point',(62.5,1.03019071898,14.5330700012)) ;
#317=CARTESIAN_POINT('Control Point',(62.3673383853,2.06038096374,14.5191267036)) ;
#318=CARTESIAN_POINT('Control Point',(62.1019691322,3.06756482974,14.4912352712)) ;
#319=CARTESIAN_POINT('Control Point',(61.3168979749,4.99366280778,14.4087209676)) ;
#320=CARTESIAN_POINT('Control Point',(60.0706052083,6.65593622666,14.2777303195)) ;
#321=CARTESIAN_POINT('Control Point',(59.342043907,7.40259377852,14.2011554411)) ;
#322=CARTESIAN_POINT('Control Point',(57.7064337903,8.69349379867,14.0292458905)) ;
#323=CARTESIAN_POINT('Control Point',(55.7988209809,9.52578307309,13.828747705)) ;
#324=CARTESIAN_POINT('Control Point',(54.7941205395,9.81620383463,13.7231494335)) ;
#325=CARTESIAN_POINT('Control Point',(52.7319818002,10.1310890691,13.5064099183)) ;
#326=CARTESIAN_POINT('Control Point',(50.6576604349,9.91113443551,13.2883899575)) ;
#327=CARTESIAN_POINT('Control Point',(49.6395255585,9.66665042079,13.1813796699)) ;
#328=CARTESIAN_POINT('Control Point',(47.6925010506,8.92082438985,12.9767391479)) ;
#329=CARTESIAN_POINT('Control Point',(45.9973554708,7.70293713441,12.7985721681)) ;
#330=CARTESIAN_POINT('Control Point',(45.2342268545,6.98797425946,12.7183641185)) ;
#331=CARTESIAN_POINT('Control Point',(44.0443017162,5.53998107401,12.5932979468)) ;
#332=CARTESIAN_POINT('Control Point',(43.2197927035,3.86082998391,12.5066385575)) ;
#333=CARTESIAN_POINT('Control Point',(42.9324692971,3.08086790136,12.4764396506)) ;
#334=CARTESIAN_POINT('Control Point',(42.6549787536,1.99123942645,12.4472742193)) ;
#335=CARTESIAN_POINT('Control Point',(42.5321977981,0.878530147248,12.4343694208)) ;
#336=CARTESIAN_POINT('Control Point',(42.5107325936,0.586040059342,12.4321133369)) ;
#337=CARTESIAN_POINT('Control Point',(42.5,0.293020048853,12.4309852959)) ;
#338=CARTESIAN_POINT('Control Point',(42.5,9.99200722163E-016,12.4309852959)) ;
#339=CARTESIAN_POINT('Vertex',(62.5,0.,14.5330700012)) ;
#341=CARTESIAN_POINT('Vertex',(42.5,1.22460635382E-015,12.4309852959)) ;
#345=CARTESIAN_POINT('Control Point',(42.5,2.6645352591E-015,12.4309852959)) ;
#346=CARTESIAN_POINT('Control Point',(42.5,-1.03019071895,12.4309852959)) ;
#347=CARTESIAN_POINT('Control Point',(42.6326616147,-2.06038096369,12.4449285935)) ;
#348=CARTESIAN_POINT('Control Point',(42.8980308678,-3.06756482965,12.4728200259)) ;
#349=CARTESIAN_POINT('Control Point',(43.683102025,-4.99366280767,12.5553343295)) ;
#350=CARTESIAN_POINT('Control Point',(44.9293947916,-6.65593622655,12.6863249776)) ;
#351=CARTESIAN_POINT('Control Point',(45.6579560928,-7.40259377841,12.762899856)) ;
#352=CARTESIAN_POINT('Control Point',(47.2935662096,-8.69349379862,12.9348094065)) ;
#353=CARTESIAN_POINT('Control Point',(49.201179019,-9.52578307306,13.1353075921)) ;
#354=CARTESIAN_POINT('Control Point',(50.2058794603,-9.81620383457,13.2409058636)) ;
#355=CARTESIAN_POINT('Control Point',(52.2680181996,-10.1310890691,13.4576453788)) ;
#356=CARTESIAN_POINT('Control Point',(54.3423395649,-9.91113443554,13.6756653396)) ;
#357=CARTESIAN_POINT('Control Point',(55.3604744414,-9.66665042083,13.7826756272)) ;
#358=CARTESIAN_POINT('Control Point',(57.3074989492,-8.92082438991,13.9873161492)) ;
#359=CARTESIAN_POINT('Control Point',(59.002644529,-7.70293713458,14.165483129)) ;
#360=CARTESIAN_POINT('Control Point',(59.7657731454,-6.98797425949,14.2456911786)) ;
#361=CARTESIAN_POINT('Control Point',(60.9556982838,-5.53998107406,14.3707573503)) ;
#362=CARTESIAN_POINT('Control Point',(61.7802072965,-3.86082998396,14.4574167396)) ;
#363=CARTESIAN_POINT('Control Point',(62.0675307028,-3.08086790159,14.4876156464)) ;
#364=CARTESIAN_POINT('Control Point',(62.3450212464,-1.99123942661,14.5167810778)) ;
#365=CARTESIAN_POINT('Control Point',(62.4678022019,-0.87853014733,14.5296858763)) ;
#366=CARTESIAN_POINT('Control Point',(62.4892674064,-0.586040059409,14.5319419602)) ;
#367=CARTESIAN_POINT('Control Point',(62.5,-0.293020048887,14.5330700012)) ;
#368=CARTESIAN_POINT('Control Point',(62.5,9.99200722163E-016,14.5330700012)) ;
#375=CARTESIAN_POINT('Axis2P3D Location',(105.,0.,0.)) ;
#386=CARTESIAN_POINT('Axis2P3D Location',(52.5,0.,0.)) ;
#390=CARTESIAN_POINT('Vertex',(62.5,-2.44921270764E-015,0.)) ;
#392=CARTESIAN_POINT('Vertex',(42.5,1.22460635382E-015,0.)) ;
#395=CARTESIAN_POINT('Axis2P3D Location',(52.5,0.,0.)) ;
#405=CARTESIAN_POINT('Axis2P3D Location',(52.5,0.,15.)) ;
#410=CARTESIAN_POINT('Line Origine',(62.5,-2.44921270764E-015,15.)) ;
#415=CARTESIAN_POINT('Line Origine',(42.5,1.22460635382E-015,15.)) ;
#53=DIRECTION('Axis2P3D Direction',(0.,1.,0.)) ;
#54=DIRECTION('Axis2P3D XDirection',(-1.,0.,0.)) ;
#58=DIRECTION('Vector Direction',(-1.,0.,0.)) ;
#67=DIRECTION('Vector Direction',(0.,0.,1.)) ;
#74=DIRECTION('Vector Direction',(-0.994521895368,0.,-0.104528463268)) ;
#81=DIRECTION('Vector Direction',(0.,0.,-1.)) ;
#93=DIRECTION('Axis2P3D Direction',(0.,1.,0.)) ;
#94=DIRECTION('Axis2P3D XDirection',(-1.,0.,0.)) ;
#98=DIRECTION('Vector Direction',(0.,0.,-1.)) ;
#107=DIRECTION('Vector Direction',(-0.994521895368,0.,-0.104528463268)) ;
#114=DIRECTION('Vector Direction',(0.,0.,1.)) ;
#121=DIRECTION('Vector Direction',(-1.,0.,0.)) ;
#133=DIRECTION('Axis2P3D Direction',(-1.,0.,0.)) ;
#134=DIRECTION('Axis2P3D XDirection',(0.,0.,1.)) ;
#138=DIRECTION('Vector Direction',(0.,0.,-1.)) ;
#147=DIRECTION('Vector Direction',(0.,-1.,0.)) ;
#154=DIRECTION('Vector Direction',(0.,0.,-1.)) ;
#161=DIRECTION('Vector Direction',(0.,1.,0.)) ;
#166=DIRECTION('Vector Direction',(0.,1.,0.)) ;
#171=DIRECTION('Vector Direction',(0.,1.,0.)) ;
#187=DIRECTION('Axis2P3D Direction',(0.104528463268,0.,-0.994521895368)) ;
#188=DIRECTION('Axis2P3D XDirection',(-0.994521895368,0.,-0.104528463268)) ;
#192=DIRECTION('Vector Direction',(0.994521895368,0.,0.104528463268)) ;
#199=DIRECTION('Vector Direction',(0.,1.,0.)) ;
#211=DIRECTION('Axis2P3D Direction',(1.,0.,0.)) ;
#212=DIRECTION('Axis2P3D XDirection',(0.,0.,-1.)) ;
#216=DIRECTION('Vector Direction',(0.,0.,-1.)) ;
#223=DIRECTION('Vector Direction',(0.,-1.,0.)) ;
#230=DIRECTION('Vector Direction',(0.,0.,-1.)) ;
#237=DIRECTION('Vector Direction',(0.,1.,0.)) ;
#242=DIRECTION('Vector Direction',(0.,1.,0.)) ;
#258=DIRECTION('Axis2P3D Direction',(-0.104528463268,0.,0.994521895368)) ;
#259=DIRECTION('Axis2P3D XDirection',(0.,-1.,0.)) ;
#263=DIRECTION('Vector Direction',(0.994521895368,0.,0.104528463268)) ;
#268=DIRECTION('Vector Direction',(-0.994521895368,0.,-0.104528463268)) ;
#280=DIRECTION('Axis2P3D Direction',(0.,1.,0.)) ;
#281=DIRECTION('Axis2P3D XDirection',(0.994521895368,0.,0.104528463268)) ;
#292=DIRECTION('Axis2P3D Direction',(0.,-1.,0.)) ;
#293=DIRECTION('Axis2P3D XDirection',(-0.994521895368,0.,-0.104528463268)) ;
#297=DIRECTION('Vector Direction',(-0.994521895368,0.,-0.104528463268)) ;
#376=DIRECTION('Axis2P3D Direction',(0.,0.,-1.)) ;
#377=DIRECTION('Axis2P3D XDirection',(-1.,0.,0.)) ;
#387=DIRECTION('Axis2P3D Direction',(0.,0.,-1.)) ;
#396=DIRECTION('Axis2P3D Direction',(0.,0.,-1.)) ;
#406=DIRECTION('Axis2P3D Direction',(0.,0.,1.)) ;
#407=DIRECTION('Axis2P3D XDirection',(1.,0.,0.)) ;
#411=DIRECTION('Vector Direction',(0.,0.,1.)) ;
#416=DIRECTION('Vector Direction',(0.,0.,1.)) ;
#48=AXIS2_PLACEMENT_3D(' ',#47,$,$) ;
#55=AXIS2_PLACEMENT_3D('Plane Axis2P3D',#52,#53,#54) ;
#95=AXIS2_PLACEMENT_3D('Plane Axis2P3D',#92,#93,#94) ;
#135=AXIS2_PLACEMENT_3D('Plane Axis2P3D',#132,#133,#134) ;
#189=AXIS2_PLACEMENT_3D('Plane Axis2P3D',#186,#187,#188) ;
#213=AXIS2_PLACEMENT_3D('Plane Axis2P3D',#210,#211,#212) ;
#260=AXIS2_PLACEMENT_3D('Plane Axis2P3D',#257,#258,#259) ;
#282=AXIS2_PLACEMENT_3D('Plane Axis2P3D',#279,#280,#281) ;
#294=AXIS2_PLACEMENT_3D('Plane Axis2P3D',#291,#292,#293) ;
#378=AXIS2_PLACEMENT_3D('Plane Axis2P3D',#375,#376,#377) ;
#388=AXIS2_PLACEMENT_3D('Circle Axis2P3D',#386,#387,$) ;
#397=AXIS2_PLACEMENT_3D('Circle Axis2P3D',#395,#396,$) ;
#408=AXIS2_PLACEMENT_3D('Cylinder Axis2P3D',#405,#406,#407) ;
#40=PRODUCT_DEFINITION_SHAPE(' ',' ',#14) ;
#31=APPROVAL_PERSON_ORGANIZATION(#25,#21,#19) ;
#25=PERSON_AND_ORGANIZATION(#22,#23) ;
#22=PERSON(' ',' ',' ',$,$,$) ;
#23=ORGANIZATION(' ',' ',' ') ;
#21=APPROVAL(#20,' ') ;
#20=APPROVAL_STATUS('not_yet_approved') ;
#19=APPROVAL_ROLE('APPROVER') ;
#13=DATE_AND_TIME(#11,#12) ;
#12=LOCAL_TIME(19,4,52.,#10) ;
#10=COORDINATED_UNIVERSAL_TIME_OFFSET(0,0,.AHEAD.) ;
#86=ORIENTED_EDGE('',*,*,#65,.F.) ;
#87=ORIENTED_EDGE('',*,*,#72,.F.) ;
#88=ORIENTED_EDGE('',*,*,#79,.F.) ;
#89=ORIENTED_EDGE('',*,*,#84,.F.) ;
#126=ORIENTED_EDGE('',*,*,#105,.T.) ;
#127=ORIENTED_EDGE('',*,*,#112,.T.) ;
#128=ORIENTED_EDGE('',*,*,#119,.T.) ;
#129=ORIENTED_EDGE('',*,*,#124,.T.) ;
#176=ORIENTED_EDGE('',*,*,#145,.T.) ;
#177=ORIENTED_EDGE('',*,*,#152,.T.) ;
#178=ORIENTED_EDGE('',*,*,#159,.F.) ;
#179=ORIENTED_EDGE('',*,*,#164,.F.) ;
#180=ORIENTED_EDGE('',*,*,#72,.T.) ;
#181=ORIENTED_EDGE('',*,*,#169,.T.) ;
#182=ORIENTED_EDGE('',*,*,#119,.F.) ;
#183=ORIENTED_EDGE('',*,*,#174,.F.) ;
#204=ORIENTED_EDGE('',*,*,#197,.F.) ;
#205=ORIENTED_EDGE('',*,*,#202,.F.) ;
#206=ORIENTED_EDGE('',*,*,#79,.T.) ;
#207=ORIENTED_EDGE('',*,*,#164,.T.) ;
#247=ORIENTED_EDGE('',*,*,#221,.T.) ;
#248=ORIENTED_EDGE('',*,*,#228,.F.) ;
#249=ORIENTED_EDGE('',*,*,#235,.F.) ;
#250=ORIENTED_EDGE('',*,*,#240,.T.) ;
#251=ORIENTED_EDGE('',*,*,#105,.F.) ;
#252=ORIENTED_EDGE('',*,*,#245,.F.) ;
#253=ORIENTED_EDGE('',*,*,#84,.T.) ;
#254=ORIENTED_EDGE('',*,*,#202,.T.) ;
#273=ORIENTED_EDGE('',*,*,#228,.T.) ;
#274=ORIENTED_EDGE('',*,*,#266,.T.) ;
#275=ORIENTED_EDGE('',*,*,#152,.F.) ;
#276=ORIENTED_EDGE('',*,*,#271,.T.) ;
#285=ORIENTED_EDGE('',*,*,#159,.T.) ;
#286=ORIENTED_EDGE('',*,*,#266,.F.) ;
#287=ORIENTED_EDGE('',*,*,#221,.F.) ;
#288=ORIENTED_EDGE('',*,*,#197,.T.) ;
#302=ORIENTED_EDGE('',*,*,#235,.T.) ;
#303=ORIENTED_EDGE('',*,*,#271,.F.) ;
#304=ORIENTED_EDGE('',*,*,#145,.F.) ;
#305=ORIENTED_EDGE('',*,*,#300,.T.) ;
#309=ORIENTED_EDGE('',*,*,#300,.F.) ;
#310=ORIENTED_EDGE('',*,*,#174,.T.) ;
#311=ORIENTED_EDGE('',*,*,#112,.F.) ;
#312=ORIENTED_EDGE('',*,*,#240,.F.) ;
#371=ORIENTED_EDGE('',*,*,#343,.F.) ;
#372=ORIENTED_EDGE('',*,*,#369,.F.) ;
#381=ORIENTED_EDGE('',*,*,#169,.F.) ;
#382=ORIENTED_EDGE('',*,*,#65,.T.) ;
#383=ORIENTED_EDGE('',*,*,#245,.T.) ;
#384=ORIENTED_EDGE('',*,*,#124,.F.) ;
#401=ORIENTED_EDGE('',*,*,#394,.T.) ;
#402=ORIENTED_EDGE('',*,*,#399,.T.) ;
#421=ORIENTED_EDGE('',*,*,#369,.T.) ;
#422=ORIENTED_EDGE('',*,*,#414,.F.) ;
#423=ORIENTED_EDGE('',*,*,#399,.F.) ;
#424=ORIENTED_EDGE('',*,*,#419,.T.) ;
#428=ORIENTED_EDGE('',*,*,#343,.T.) ;
#429=ORIENTED_EDGE('',*,*,#419,.F.) ;
#430=ORIENTED_EDGE('',*,*,#394,.F.) ;
#431=ORIENTED_EDGE('',*,*,#414,.T.) ;
#373=FACE_BOUND('',#370,.T.) ;
#403=FACE_BOUND('',#400,.T.) ;
#51=CLOSED_SHELL('Closed Shell',(#91,#131,#185,#209,#256,#278,#290,#307,#374,#404,#426,#433)) ;
#59=VECTOR('Line Direction',#58,1.) ;
#68=VECTOR('Line Direction',#67,1.) ;
#75=VECTOR('Line Direction',#74,1.) ;
#82=VECTOR('Line Direction',#81,1.) ;
#99=VECTOR('Line Direction',#98,1.) ;
#108=VECTOR('Line Direction',#107,1.) ;
#115=VECTOR('Line Direction',#114,1.) ;
#122=VECTOR('Line Direction',#121,1.) ;
#139=VECTOR('Line Direction',#138,1.) ;
#148=VECTOR('Line Direction',#147,1.) ;
#155=VECTOR('Line Direction',#154,1.) ;
#162=VECTOR('Line Direction',#161,1.) ;
#167=VECTOR('Line Direction',#166,1.) ;
#172=VECTOR('Line Direction',#171,1.) ;
#193=VECTOR('Line Direction',#192,1.) ;
#200=VECTOR('Line Direction',#199,1.) ;
#217=VECTOR('Line Direction',#216,1.) ;
#224=VECTOR('Line Direction',#223,1.) ;
#231=VECTOR('Line Direction',#230,1.) ;
#238=VECTOR('Line Direction',#237,1.) ;
#243=VECTOR('Line Direction',#242,1.) ;
#264=VECTOR('Line Direction',#263,1.) ;
#269=VECTOR('Line Direction',#268,1.) ;
#298=VECTOR('Line Direction',#297,1.) ;
#412=VECTOR('Line Direction',#411,1.) ;
#417=VECTOR('Line Direction',#416,1.) ;
#435=ADVANCED_BREP_SHAPE_REPRESENTATION('NONE',(#434),#46) ;
#49=SHAPE_REPRESENTATION(' ',(#48),#46) ;
#91=ADVANCED_FACE('',(#90),#56,.F.) ;
#131=ADVANCED_FACE('',(#130),#96,.T.) ;
#185=ADVANCED_FACE('',(#184),#136,.F.) ;
#209=ADVANCED_FACE('',(#208),#190,.F.) ;
#256=ADVANCED_FACE('',(#255),#214,.F.) ;
#278=ADVANCED_FACE('',(#277),#261,.T.) ;
#290=ADVANCED_FACE('',(#289),#283,.T.) ;
#307=ADVANCED_FACE('',(#306),#295,.T.) ;
#374=ADVANCED_FACE('',(#313,#373),#190,.F.) ;
#404=ADVANCED_FACE('',(#385,#403),#379,.T.) ;
#426=ADVANCED_FACE('',(#425),#409,.F.) ;
#433=ADVANCED_FACE('',(#432),#409,.F.) ;
#4=APPLICATION_PROTOCOL_DEFINITION('international standard','config_control_design',1994,#1) ;
#32=APPROVAL_DATE_TIME(#13,#21) ;
#314=B_SPLINE_CURVE_WITH_KNOTS('',5,(#315,#316,#317,#318,#319,#320,#321,#322,#323,#324,#325,#326,#327,#328,#329,#330,#331,#332,#333,#334,#335,#336,#337,#338),.UNSPECIFIED.,.F.,.U.,(6,3,3,3,3,3,3,6),(0.,7.28454843303,14.5981299928,21.9478731375,29.3071109691,36.6397558596,42.4787564245,44.5507210602),.UNSPECIFIED.) ;
#344=B_SPLINE_CURVE_WITH_KNOTS('',5,(#345,#346,#347,#348,#349,#350,#351,#352,#353,#354,#355,#356,#357,#358,#359,#360,#361,#362,#363,#364,#365,#366,#367,#368),.UNSPECIFIED.,.F.,.U.,(6,3,3,3,3,3,3,6),(0.,7.28454843287,14.5981299927,21.9478731375,29.307110969,36.6397558592,42.4787564245,44.5507210604),.UNSPECIFIED.) ;
#434=MANIFOLD_SOLID_BREP('Corps principal',#51) ;
#11=CALENDAR_DATE(2021,23,11) ;
#30=CC_DESIGN_APPROVAL(#21,(#16,#6,#14)) ;
#18=CC_DESIGN_DATE_AND_TIME_ASSIGNMENT(#13,#17,(#16)) ;
#29=CC_DESIGN_DATE_AND_TIME_ASSIGNMENT(#13,#28,(#14)) ;
#17=DATE_TIME_ROLE('classification_date') ;
#28=DATE_TIME_ROLE('creation_date') ;
#27=CC_DESIGN_PERSON_AND_ORGANIZATION_ASSIGNMENT(#25,#26,(#16)) ;
#33=CC_DESIGN_PERSON_AND_ORGANIZATION_ASSIGNMENT(#25,#34,(#6)) ;
#35=CC_DESIGN_PERSON_AND_ORGANIZATION_ASSIGNMENT(#25,#36,(#6,#14)) ;
#37=CC_DESIGN_PERSON_AND_ORGANIZATION_ASSIGNMENT(#25,#38,(#5)) ;
#26=PERSON_AND_ORGANIZATION_ROLE('classification_officer') ;
#34=PERSON_AND_ORGANIZATION_ROLE('design_supplier') ;
#36=PERSON_AND_ORGANIZATION_ROLE('creator') ;
#38=PERSON_AND_ORGANIZATION_ROLE('design_owner') ;
#39=CC_DESIGN_SECURITY_CLASSIFICATION(#16,(#6)) ;
#389=CIRCLE('generated circle',#388,10.) ;
#398=CIRCLE('generated circle',#397,10.) ;
#436=SHAPE_REPRESENTATION_RELATIONSHIP(' ',' ',#49,#435) ;
#409=CYLINDRICAL_SURFACE('generated cylinder',#408,10.) ;
#3=DESIGN_CONTEXT(' ',#1,'design') ;
#65=EDGE_CURVE('',#62,#64,#60,.T.) ;
#72=EDGE_CURVE('',#71,#62,#69,.F.) ;
#79=EDGE_CURVE('',#78,#71,#76,.F.) ;
#84=EDGE_CURVE('',#64,#78,#83,.F.) ;
#105=EDGE_CURVE('',#102,#104,#100,.F.) ;
#112=EDGE_CURVE('',#104,#111,#109,.F.) ;
#119=EDGE_CURVE('',#111,#118,#116,.F.) ;
#124=EDGE_CURVE('',#118,#102,#123,.T.) ;
#145=EDGE_CURVE('',#142,#144,#140,.T.) ;
#152=EDGE_CURVE('',#144,#151,#149,.T.) ;
#159=EDGE_CURVE('',#158,#151,#156,.T.) ;
#164=EDGE_CURVE('',#71,#158,#163,.T.) ;
#169=EDGE_CURVE('',#62,#118,#168,.T.) ;
#174=EDGE_CURVE('',#142,#111,#173,.T.) ;
#197=EDGE_CURVE('',#196,#158,#194,.T.) ;
#202=EDGE_CURVE('',#78,#196,#201,.T.) ;
#221=EDGE_CURVE('',#196,#220,#218,.T.) ;
#228=EDGE_CURVE('',#227,#220,#225,.T.) ;
#235=EDGE_CURVE('',#234,#227,#232,.T.) ;
#240=EDGE_CURVE('',#234,#104,#239,.T.) ;
#245=EDGE_CURVE('',#64,#102,#244,.T.) ;
#266=EDGE_CURVE('',#220,#151,#265,.T.) ;
#271=EDGE_CURVE('',#144,#227,#270,.T.) ;
#300=EDGE_CURVE('',#142,#234,#299,.T.) ;
#343=EDGE_CURVE('',#340,#342,#314,.T.) ;
#369=EDGE_CURVE('',#342,#340,#344,.T.) ;
#394=EDGE_CURVE('',#391,#393,#389,.F.) ;
#399=EDGE_CURVE('',#393,#391,#398,.F.) ;
#414=EDGE_CURVE('',#391,#340,#413,.T.) ;
#419=EDGE_CURVE('',#393,#342,#418,.T.) ;
#85=EDGE_LOOP('',(#86,#87,#88,#89)) ;
#125=EDGE_LOOP('',(#126,#127,#128,#129)) ;
#175=EDGE_LOOP('',(#176,#177,#178,#179,#180,#181,#182,#183)) ;
#203=EDGE_LOOP('',(#204,#205,#206,#207)) ;
#246=EDGE_LOOP('',(#247,#248,#249,#250,#251,#252,#253,#254)) ;
#272=EDGE_LOOP('',(#273,#274,#275,#276)) ;
#284=EDGE_LOOP('',(#285,#286,#287,#288)) ;
#301=EDGE_LOOP('',(#302,#303,#304,#305)) ;
#308=EDGE_LOOP('',(#309,#310,#311,#312)) ;
#370=EDGE_LOOP('',(#371,#372)) ;
#380=EDGE_LOOP('',(#381,#382,#383,#384)) ;
#400=EDGE_LOOP('',(#401,#402)) ;
#420=EDGE_LOOP('',(#421,#422,#423,#424)) ;
#427=EDGE_LOOP('',(#428,#429,#430,#431)) ;
#90=FACE_OUTER_BOUND('',#85,.T.) ;
#130=FACE_OUTER_BOUND('',#125,.T.) ;
#184=FACE_OUTER_BOUND('',#175,.T.) ;
#208=FACE_OUTER_BOUND('',#203,.T.) ;
#255=FACE_OUTER_BOUND('',#246,.T.) ;
#277=FACE_OUTER_BOUND('',#272,.T.) ;
#289=FACE_OUTER_BOUND('',#284,.T.) ;
#306=FACE_OUTER_BOUND('',#301,.T.) ;
#313=FACE_OUTER_BOUND('',#308,.T.) ;
#385=FACE_OUTER_BOUND('',#380,.T.) ;
#425=FACE_OUTER_BOUND('',#420,.T.) ;
#432=FACE_OUTER_BOUND('',#427,.T.) ;
#45=UNCERTAINTY_MEASURE_WITH_UNIT(LENGTH_MEASURE(0.005),#41,'distance_accuracy_value','CONFUSED CURVE UNCERTAINTY') ;
#60=LINE('Line',#57,#59) ;
#69=LINE('Line',#66,#68) ;
#76=LINE('Line',#73,#75) ;
#83=LINE('Line',#80,#82) ;
#100=LINE('Line',#97,#99) ;
#109=LINE('Line',#106,#108) ;
#116=LINE('Line',#113,#115) ;
#123=LINE('Line',#120,#122) ;
#140=LINE('Line',#137,#139) ;
#149=LINE('Line',#146,#148) ;
#156=LINE('Line',#153,#155) ;
#163=LINE('Line',#160,#162) ;
#168=LINE('Line',#165,#167) ;
#173=LINE('Line',#170,#172) ;
#194=LINE('Line',#191,#193) ;
#201=LINE('Line',#198,#200) ;
#218=LINE('Line',#215,#217) ;
#225=LINE('Line',#222,#224) ;
#232=LINE('Line',#229,#231) ;
#239=LINE('Line',#236,#238) ;
#244=LINE('Line',#241,#243) ;
#265=LINE('Line',#262,#264) ;
#270=LINE('Line',#267,#269) ;
#299=LINE('Line',#296,#298) ;
#413=LINE('Line',#410,#412) ;
#418=LINE('Line',#415,#417) ;
#2=MECHANICAL_CONTEXT(' ',#1,'mechanical') ;
#24=PERSONAL_ADDRESS(' ',' ',' ',' ',' ',' ',' ',' ',' ',' ',' ',' ',(#22),' ') ;
#56=PLANE('Plane',#55) ;
#96=PLANE('Plane',#95) ;
#136=PLANE('Plane',#135) ;
#190=PLANE('Plane',#189) ;
#214=PLANE('Plane',#213) ;
#261=PLANE('Plane',#260) ;
#283=PLANE('Plane',#282) ;
#295=PLANE('Plane',#294) ;
#379=PLANE('Plane',#378) ;
#43=PLANE_ANGLE_MEASURE_WITH_UNIT(PLANE_ANGLE_MEASURE(0.0174532925199),#42) ;
#7=PRODUCT_CATEGORY('part',$) ;
#9=PRODUCT_CATEGORY_RELATIONSHIP(' ',' ',#7,#8) ;
#6=PRODUCT_DEFINITION_FORMATION_WITH_SPECIFIED_SOURCE('',' ',#5,.NOT_KNOWN.) ;
#8=PRODUCT_RELATED_PRODUCT_CATEGORY('detail',$,(#5)) ;
#50=SHAPE_DEFINITION_REPRESENTATION(#40,#49) ;
#62=VERTEX_POINT('',#61) ;
#64=VERTEX_POINT('',#63) ;
#71=VERTEX_POINT('',#70) ;
#78=VERTEX_POINT('',#77) ;
#102=VERTEX_POINT('',#101) ;
#104=VERTEX_POINT('',#103) ;
#111=VERTEX_POINT('',#110) ;
#118=VERTEX_POINT('',#117) ;
#142=VERTEX_POINT('',#141) ;
#144=VERTEX_POINT('',#143) ;
#151=VERTEX_POINT('',#150) ;
#158=VERTEX_POINT('',#157) ;
#196=VERTEX_POINT('',#195) ;
#220=VERTEX_POINT('',#219) ;
#227=VERTEX_POINT('',#226) ;
#234=VERTEX_POINT('',#233) ;
#340=VERTEX_POINT('',#339) ;
#342=VERTEX_POINT('',#341) ;
#391=VERTEX_POINT('',#390) ;
#393=VERTEX_POINT('',#392) ;
#41=(LENGTH_UNIT()NAMED_UNIT(*)SI_UNIT(.MILLI.,.METRE.)) ;
#42=(NAMED_UNIT(*)PLANE_ANGLE_UNIT()SI_UNIT($,.RADIAN.)) ;
#44=(NAMED_UNIT(*)SI_UNIT($,.STERADIAN.)SOLID_ANGLE_UNIT()) ;
#46=(GEOMETRIC_REPRESENTATION_CONTEXT(3)GLOBAL_UNCERTAINTY_ASSIGNED_CONTEXT((#45))GLOBAL_UNIT_ASSIGNED_CONTEXT((#41,#42,#44))REPRESENTATION_CONTEXT(' ',' ')) ;
ENDSEC;
END-ISO-10303-21;
