ISO-10303-21;
HEADER;
FILE_DESCRIPTION (( 'STEP AP214' ),
    '1' );
FILE_NAME ('Plexis 1.STEP',
    '2021-11-03T10:21:06',
    ( '' ),
    ( '' ),
    'SwSTEP 2.0',
    'SolidWorks 2014',
    '' );
FILE_SCHEMA (( 'AUTOMOTIVE_DESIGN' ));
ENDSEC;

DATA;
#1 = UNCERTAINTY_MEASURE_WITH_UNIT (LENGTH_MEASURE( 1.000000000000000100E-005 ), #106, 'distance_accuracy_value', 'NONE');
#2 = VECTOR ( 'NONE', #84, 1000.000000000000000 ) ;
#3 = EDGE_LOOP ( 'NONE', ( #165, #55, #108, #316 ) ) ;
#4 = CARTESIAN_POINT ( 'NONE',  ( 0.0000000000000000000, 0.0000000000000000000, 0.0000000000000000000 ) ) ;
#5 = VERTEX_POINT ( 'NONE', #385 ) ;
#6 = DIRECTION ( 'NONE',  ( -1.000000000000000000, 0.0000000000000000000, 0.0000000000000000000 ) ) ;
#7 = VECTOR ( 'NONE', #171, 1000.000000000000000 ) ;
#8 = APPLICATION_PROTOCOL_DEFINITION ( 'draft international standard', 'automotive_design', 1998, #173 ) ;
#9 = PRESENTATION_LAYER_ASSIGNMENT (  '', '', ( #43 ) ) ;
#10 = DIRECTION ( 'NONE',  ( 0.0000000000000000000, 0.0000000000000000000, -1.000000000000000000 ) ) ;
#11 = CARTESIAN_POINT ( 'NONE',  ( -750.0000000000000000, 0.0000000000000000000, 8.000000000000000000 ) ) ;
#12 = ADVANCED_FACE ( 'NONE', ( #342 ), #26, .T. ) ;
#13 = LINE ( 'NONE', #115, #335 ) ;
#14 = CARTESIAN_POINT ( 'NONE',  ( -510.0000000000000000, 70.94012792986230000, 8.000000000000000000 ) ) ;
#15 = DIRECTION ( 'NONE',  ( 0.0000000000000000000, 0.0000000000000000000, -1.000000000000000000 ) ) ;
#16 = ORIENTED_EDGE ( 'NONE', *, *, #105, .F. ) ;
#17 = PRODUCT_DEFINITION_CONTEXT ( 'detailed design', #111, 'design' ) ;
#18 = DIRECTION ( 'NONE',  ( -0.0000000000000000000, 1.000000000000000000, -0.0000000000000000000 ) ) ;
#19 = CARTESIAN_POINT ( 'NONE',  ( -740.0000000000000000, 250.0000000000000000, 8.000000000000000000 ) ) ;
#20 = ORIENTED_EDGE ( 'NONE', *, *, #337, .F. ) ;
#21 = VERTEX_POINT ( 'NONE', #384 ) ;
#22 = DIRECTION ( 'NONE',  ( 0.0000000000000000000, 0.0000000000000000000, -1.000000000000000000 ) ) ;
#23 = DIRECTION ( 'NONE',  ( -1.224646799147353200E-016, 1.000000000000000000, 0.0000000000000000000 ) ) ;
#24 = CARTESIAN_POINT ( 'NONE',  ( -750.0000000000000000, 250.0000000000000000, 8.000000000000000000 ) ) ;
#25 = DIRECTION ( 'NONE',  ( 0.0000000000000000000, 0.0000000000000000000, -1.000000000000000000 ) ) ;
#26 = CYLINDRICAL_SURFACE ( 'NONE', #156, 10.00000000000000900 ) ;
#27 = SURFACE_STYLE_USAGE ( .BOTH. , #242 ) ;
#28 = EDGE_CURVE ( 'NONE', #184, #290, #189, .T. ) ;
#29 = FACE_OUTER_BOUND ( 'NONE', #94, .T. ) ;
#30 = DIRECTION ( 'NONE',  ( -0.0000000000000000000, -0.0000000000000000000, 1.000000000000000000 ) ) ;
#31 = VECTOR ( 'NONE', #362, 1000.000000000000000 ) ;
#32 = LINE ( 'NONE', #186, #2 ) ;
#33 = ORIENTED_EDGE ( 'NONE', *, *, #262, .T. ) ;
#34 = ORIENTED_EDGE ( 'NONE', *, *, #28, .F. ) ;
#35 = VECTOR ( 'NONE', #350, 1000.000000000000000 ) ;
#36 = ADVANCED_FACE ( 'NONE', ( #344 ), #146, .F. ) ;
#37 = EDGE_CURVE ( 'NONE', #66, #306, #253, .T. ) ;
#38 = ORIENTED_EDGE ( 'NONE', *, *, #404, .F. ) ;
#39 = VECTOR ( 'NONE', #217, 1000.000000000000000 ) ;
#40 = PLANE ( 'NONE',  #229 ) ;
#41 = PRODUCT_DEFINITION ( 'UNKNOWN', '', #69, #17 ) ;
#42 = EDGE_LOOP ( 'NONE', ( #338, #107, #142, #402 ) ) ;
#43 = STYLED_ITEM ( 'NONE', ( #49 ), #291 ) ;
#44 = FILL_AREA_STYLE ('',( #208 ) ) ;
#45 = EDGE_CURVE ( 'NONE', #184, #119, #130, .T. ) ;
#46 = DIRECTION ( 'NONE',  ( -0.0000000000000000000, -0.0000000000000000000, 1.000000000000000000 ) ) ;
#47 = VERTEX_POINT ( 'NONE', #209 ) ;
#48 = DIRECTION ( 'NONE',  ( -1.000000000000000000, 0.0000000000000000000, -0.0000000000000000000 ) ) ;
#49 = PRESENTATION_STYLE_ASSIGNMENT (( #27 ) ) ;
#50 = CARTESIAN_POINT ( 'NONE',  ( -510.0000000000000000, 2.645237086158281400E-014, 8.000000000000000000 ) ) ;
#51 = EDGE_CURVE ( 'NONE', #21, #220, #87, .T. ) ;
#52 = DIRECTION ( 'NONE',  ( -0.0000000000000000000, -0.0000000000000000000, -1.000000000000000000 ) ) ;
#53 = DIRECTION ( 'NONE',  ( 0.0000000000000000000, 0.0000000000000000000, 1.000000000000000000 ) ) ;
#54 = CARTESIAN_POINT ( 'NONE',  ( -370.0000000000000000, -4.531193156845206800E-014, 8.000000000000000000 ) ) ;
#55 = ORIENTED_EDGE ( 'NONE', *, *, #381, .T. ) ;
#56 = CARTESIAN_POINT ( 'NONE',  ( -510.0000000000000000, 70.94012792986230000, 8.000000000000000000 ) ) ;
#57 = DIRECTION ( 'NONE',  ( -0.0000000000000000000, -1.000000000000000000, -0.0000000000000000000 ) ) ;
#58 = VERTEX_POINT ( 'NONE', #85 ) ;
#59 = PLANE ( 'NONE',  #71 ) ;
#60 =( NAMED_UNIT ( * ) SI_UNIT ( $, .STERADIAN. ) SOLID_ANGLE_UNIT ( ) );
#61 = ORIENTED_EDGE ( 'NONE', *, *, #391, .T. ) ;
#62 = CARTESIAN_POINT ( 'NONE',  ( -370.0000000000000000, -4.531193156845206800E-014, 0.0000000000000000000 ) ) ;
#63 = DIRECTION ( 'NONE',  ( -1.000000000000000000, 0.0000000000000000000, 0.0000000000000000000 ) ) ;
#64 = EDGE_CURVE ( 'NONE', #220, #147, #308, .T. ) ;
#65 =( NAMED_UNIT ( * ) PLANE_ANGLE_UNIT ( ) SI_UNIT ( $, .RADIAN. ) );
#66 = VERTEX_POINT ( 'NONE', #368 ) ;
#67 = AXIS2_PLACEMENT_3D ( 'NONE', #302, #387, #53 ) ;
#68 = ORIENTED_EDGE ( 'NONE', *, *, #254, .T. ) ;
#69 = PRODUCT_DEFINITION_FORMATION_WITH_SPECIFIED_SOURCE ( 'ANY', '', #72, .NOT_KNOWN. ) ;
#70 = LINE ( 'NONE', #354, #7 ) ;
#71 = AXIS2_PLACEMENT_3D ( 'NONE', #271, #23, #240 ) ;
#72 = PRODUCT ( 'Plexis 1', 'Plexis 1', '', ( #256 ) ) ;
#73 = LINE ( 'NONE', #137, #35 ) ;
#74 = EDGE_CURVE ( 'NONE', #282, #303, #167, .T. ) ;
#75 = EDGE_LOOP ( 'NONE', ( #161, #225, #224, #278 ) ) ;
#76 = SURFACE_SIDE_STYLE ('',( #265 ) ) ;
#77 = CARTESIAN_POINT ( 'NONE',  ( -370.0000000000000000, 70.94012792986231400, 0.0000000000000000000 ) ) ;
#78 = UNCERTAINTY_MEASURE_WITH_UNIT (LENGTH_MEASURE( 1.000000000000000100E-005 ), #231, 'distance_accuracy_value', 'NONE');
#79 = CARTESIAN_POINT ( 'NONE',  ( -10.00000000000000900, 240.0000000000000000, 8.000000000000000000 ) ) ;
#80 = CIRCLE ( 'NONE', #399, 10.00000000000000200 ) ;
#81 = CARTESIAN_POINT ( 'NONE',  ( -10.00000000000000900, 240.0000000000000000, 0.0000000000000000000 ) ) ;
#82 = AXIS2_PLACEMENT_3D ( 'NONE', #244, #370, #63 ) ;
#83 =( NAMED_UNIT ( * ) PLANE_ANGLE_UNIT ( ) SI_UNIT ( $, .RADIAN. ) );
#84 = DIRECTION ( 'NONE',  ( -0.0000000000000000000, -0.0000000000000000000, -1.000000000000000000 ) ) ;
#85 = CARTESIAN_POINT ( 'NONE',  ( -510.0000000000000000, 2.645237086158281400E-014, 0.0000000000000000000 ) ) ;
#86 = CARTESIAN_POINT ( 'NONE',  ( -510.0000000000000000, 2.645237086158281400E-014, 8.000000000000000000 ) ) ;
#87 = LINE ( 'NONE', #116, #376 ) ;
#88 = ORIENTED_EDGE ( 'NONE', *, *, #45, .F. ) ;
#89 = CARTESIAN_POINT ( 'NONE',  ( -510.0000000000000000, 70.94012792986230000, 0.0000000000000000000 ) ) ;
#90 = ORIENTED_EDGE ( 'NONE', *, *, #64, .T. ) ;
#91 = CARTESIAN_POINT ( 'NONE',  ( -740.0000000000000000, 250.0000000000000000, 8.000000000000000000 ) ) ;
#92 = FILL_AREA_STYLE ('',( #275 ) ) ;
#93 = CARTESIAN_POINT ( 'NONE',  ( -10.00000000000000900, 250.0000000000000000, 0.0000000000000000000 ) ) ;
#94 = EDGE_LOOP ( 'NONE', ( #280, #97, #38, #287 ) ) ;
#95 = MECHANICAL_DESIGN_GEOMETRIC_PRESENTATION_REPRESENTATION (  '', ( #43 ), #293 ) ;
#96 = VECTOR ( 'NONE', #57, 1000.000000000000000 ) ;
#97 = ORIENTED_EDGE ( 'NONE', *, *, #158, .F. ) ;
#98 = EDGE_CURVE ( 'NONE', #396, #184, #295, .T. ) ;
#99 = EDGE_LOOP ( 'NONE', ( #356, #330, #379, #349 ) ) ;
#100 = ORIENTED_EDGE ( 'NONE', *, *, #380, .F. ) ;
#101 = VECTOR ( 'NONE', #139, 1000.000000000000000 ) ;
#102 = ADVANCED_FACE ( 'NONE', ( #179 ), #40, .F. ) ;
#103 = LINE ( 'NONE', #390, #162 ) ;
#104 = ADVANCED_FACE ( 'NONE', ( #29 ), #140, .F. ) ;
#105 = EDGE_CURVE ( 'NONE', #119, #216, #252, .T. ) ;
#106 =( LENGTH_UNIT ( ) NAMED_UNIT ( * ) SI_UNIT ( .MILLI., .METRE. ) );
#107 = ORIENTED_EDGE ( 'NONE', *, *, #133, .F. ) ;
#108 = ORIENTED_EDGE ( 'NONE', *, *, #37, .F. ) ;
#109 = DIRECTION ( 'NONE',  ( 0.0000000000000000000, 0.0000000000000000000, -1.000000000000000000 ) ) ;
#110 = VECTOR ( 'NONE', #154, 1000.000000000000000 ) ;
#111 = APPLICATION_CONTEXT ( 'automotive_design' ) ;
#112 = CARTESIAN_POINT ( 'NONE',  ( -750.0000000000000000, 240.0000000000000000, 8.000000000000000000 ) ) ;
#113 = ORIENTED_EDGE ( 'NONE', *, *, #383, .F. ) ;
#114 = DIRECTION ( 'NONE',  ( -0.0000000000000000000, -0.0000000000000000000, 1.000000000000000000 ) ) ;
#115 = CARTESIAN_POINT ( 'NONE',  ( -510.0000000000000000, 70.94012792986230000, 8.000000000000000000 ) ) ;
#116 = CARTESIAN_POINT ( 'NONE',  ( -510.0000000000000000, 2.645237086158281400E-014, 8.000000000000000000 ) ) ;
#117 = VERTEX_POINT ( 'NONE', #360 ) ;
#118 = CARTESIAN_POINT ( 'NONE',  ( -370.0000000000000000, 70.94012792986231400, 8.000000000000000000 ) ) ;
#119 = VERTEX_POINT ( 'NONE', #185 ) ;
#120 = DIRECTION ( 'NONE',  ( 1.000000000000000000, 1.224646799147353200E-016, -0.0000000000000000000 ) ) ;
#121 = CARTESIAN_POINT ( 'NONE',  ( -370.0000000000000000, -4.531193156845206800E-014, 8.000000000000000000 ) ) ;
#122 = PRESENTATION_LAYER_ASSIGNMENT (  '', '', ( #314 ) ) ;
#123 = CARTESIAN_POINT ( 'NONE',  ( 0.0000000000000000000, 0.0000000000000000000, 0.0000000000000000000 ) ) ;
#124 = ORIENTED_EDGE ( 'NONE', *, *, #51, .F. ) ;
#125 = PLANE ( 'NONE',  #132 ) ;
#126 = LINE ( 'NONE', #62, #187 ) ;
#127 = VERTEX_POINT ( 'NONE', #363 ) ;
#128 =( GEOMETRIC_REPRESENTATION_CONTEXT ( 3 ) GLOBAL_UNCERTAINTY_ASSIGNED_CONTEXT ( ( #78 ) ) GLOBAL_UNIT_ASSIGNED_CONTEXT ( ( #231, #83, #203 ) ) REPRESENTATION_CONTEXT ( 'NONE', 'WORKASPACE' ) );
#129 = AXIS2_PLACEMENT_3D ( 'NONE', #118, #241, #386 ) ;
#130 = CIRCLE ( 'NONE', #236, 10.00000000000000900 ) ;
#131 = FACE_OUTER_BOUND ( 'NONE', #268, .T. ) ;
#132 = AXIS2_PLACEMENT_3D ( 'NONE', #24, #155, #372 ) ;
#133 = EDGE_CURVE ( 'NONE', #147, #117, #13, .T. ) ;
#134 = DIRECTION ( 'NONE',  ( -1.000000000000000000, 4.898587196589411800E-017, 0.0000000000000000000 ) ) ;
#135 = ORIENTED_EDGE ( 'NONE', *, *, #51, .T. ) ;
#136 = DIRECTION ( 'NONE',  ( 1.000000000000000000, 9.912705577010325500E-017, -0.0000000000000000000 ) ) ;
#137 = CARTESIAN_POINT ( 'NONE',  ( -510.0000000000000000, 2.645237086158281400E-014, 0.0000000000000000000 ) ) ;
#138 = VECTOR ( 'NONE', #120, 1000.000000000000000 ) ;
#139 = DIRECTION ( 'NONE',  ( -0.0000000000000000000, -1.000000000000000000, -0.0000000000000000000 ) ) ;
#140 = PLANE ( 'NONE',  #129 ) ;
#141 = CARTESIAN_POINT ( 'NONE',  ( -740.0000000000000000, 240.0000000000000000, 0.0000000000000000000 ) ) ;
#142 = ORIENTED_EDGE ( 'NONE', *, *, #64, .F. ) ;
#143 = ADVANCED_FACE ( 'NONE', ( #246 ), #298, .F. ) ;
#144 = DIRECTION ( 'NONE',  ( 4.898587196589411800E-017, 1.000000000000000000, -0.0000000000000000000 ) ) ;
#145 = DIRECTION ( 'NONE',  ( -1.000000000000000000, -0.0000000000000000000, -0.0000000000000000000 ) ) ;
#146 = PLANE ( 'NONE',  #67 ) ;
#147 = VERTEX_POINT ( 'NONE', #14 ) ;
#148 = DIRECTION ( 'NONE',  ( -1.102182119232617300E-016, 1.000000000000000000, 0.0000000000000000000 ) ) ;
#149 = EDGE_CURVE ( 'NONE', #303, #119, #191, .T. ) ;
#150 = UNCERTAINTY_MEASURE_WITH_UNIT (LENGTH_MEASURE( 1.000000000000000100E-005 ), #394, 'distance_accuracy_value', 'NONE');
#151 = CARTESIAN_POINT ( 'NONE',  ( -750.0000000000000000, 250.0000000000000000, 8.000000000000000000 ) ) ;
#152 = CARTESIAN_POINT ( 'NONE',  ( -10.00000000000000900, 250.0000000000000000, 8.000000000000000000 ) ) ;
#153 = VECTOR ( 'NONE', #136, 1000.000000000000000 ) ;
#154 = DIRECTION ( 'NONE',  ( -1.000000000000000000, -0.0000000000000000000, -0.0000000000000000000 ) ) ;
#155 = DIRECTION ( 'NONE',  ( 0.0000000000000000000, -1.000000000000000000, 0.0000000000000000000 ) ) ;
#156 = AXIS2_PLACEMENT_3D ( 'NONE', #213, #15, #237 ) ;
#157 = FACE_OUTER_BOUND ( 'NONE', #388, .T. ) ;
#158 = EDGE_CURVE ( 'NONE', #47, #346, #166, .T. ) ;
#159 = ORIENTED_EDGE ( 'NONE', *, *, #98, .F. ) ;
#160 = ORIENTED_EDGE ( 'NONE', *, *, #74, .F. ) ;
#161 = ORIENTED_EDGE ( 'NONE', *, *, #249, .T. ) ;
#162 = VECTOR ( 'NONE', #176, 1000.000000000000000 ) ;
#163 = AXIS2_PLACEMENT_3D ( 'NONE', #263, #215, #22 ) ;
#164 = ADVANCED_FACE ( 'NONE', ( #264 ), #183, .F. ) ;
#165 = ORIENTED_EDGE ( 'NONE', *, *, #319, .T. ) ;
#166 = LINE ( 'NONE', #364, #343 ) ;
#167 = LINE ( 'NONE', #152, #398 ) ;
#168 = COLOUR_RGB ( '',0.7921568627450980000, 0.8196078431372548800, 0.9333333333333333500 ) ;
#169 = ORIENTED_EDGE ( 'NONE', *, *, #249, .F. ) ;
#170 = LINE ( 'NONE', #331, #96 ) ;
#171 = DIRECTION ( 'NONE',  ( 1.000000000000000000, 9.912705577010325500E-017, -0.0000000000000000000 ) ) ;
#172 = PRESENTATION_STYLE_ASSIGNMENT (( #289 ) ) ;
#173 = APPLICATION_CONTEXT ( 'automotive_design' ) ;
#174 = CARTESIAN_POINT ( 'NONE',  ( 1.224646799147352900E-014, 250.0000000000000000, 8.000000000000000000 ) ) ;
#175 = PLANE ( 'NONE',  #177 ) ;
#176 = DIRECTION ( 'NONE',  ( 1.000000000000000000, 1.224646799147353200E-016, -0.0000000000000000000 ) ) ;
#177 = AXIS2_PLACEMENT_3D ( 'NONE', #174, #134, #352 ) ;
#178 = VECTOR ( 'NONE', #18, 1000.000000000000000 ) ;
#179 = FACE_OUTER_BOUND ( 'NONE', #272, .T. ) ;
#180 = DIRECTION ( 'NONE',  ( -1.000000000000000000, 0.0000000000000000000, 0.0000000000000000000 ) ) ;
#181 = PLANE ( 'NONE',  #199 ) ;
#182 = ORIENTED_EDGE ( 'NONE', *, *, #257, .F. ) ;
#183 = PLANE ( 'NONE',  #163 ) ;
#184 = VERTEX_POINT ( 'NONE', #238 ) ;
#185 = CARTESIAN_POINT ( 'NONE',  ( -740.0000000000000000, 250.0000000000000000, 0.0000000000000000000 ) ) ;
#186 = CARTESIAN_POINT ( 'NONE',  ( -510.0000000000000000, 2.645237086158281400E-014, 8.000000000000000000 ) ) ;
#187 = VECTOR ( 'NONE', #276, 1000.000000000000000 ) ;
#188 = CARTESIAN_POINT ( 'NONE',  ( 1.175660927181458800E-014, 240.0000000000000000, 8.000000000000000000 ) ) ;
#189 = LINE ( 'NONE', #266, #31 ) ;
#190 = DIRECTION ( 'NONE',  ( 4.898587196589411800E-017, 1.000000000000000000, -0.0000000000000000000 ) ) ;
#191 = LINE ( 'NONE', #329, #317 ) ;
#192 = LINE ( 'NONE', #292, #286 ) ;
#193 = ORIENTED_EDGE ( 'NONE', *, *, #391, .F. ) ;
#194 = ADVANCED_FACE ( 'NONE', ( #355 ), #59, .F. ) ;
#195 = CIRCLE ( 'NONE', #279, 10.00000000000000200 ) ;
#196 = EDGE_CURVE ( 'NONE', #58, #117, #206, .T. ) ;
#197 = VECTOR ( 'NONE', #358, 1000.000000000000000 ) ;
#198 = FACE_OUTER_BOUND ( 'NONE', #270, .T. ) ;
#199 = AXIS2_PLACEMENT_3D ( 'NONE', #54, #269, #395 ) ;
#200 = ORIENTED_EDGE ( 'NONE', *, *, #361, .F. ) ;
#201 = ORIENTED_EDGE ( 'NONE', *, *, #74, .T. ) ;
#202 = ORIENTED_EDGE ( 'NONE', *, *, #326, .F. ) ;
#203 =( NAMED_UNIT ( * ) SI_UNIT ( $, .STERADIAN. ) SOLID_ANGLE_UNIT ( ) );
#204 = ORIENTED_EDGE ( 'NONE', *, *, #374, .T. ) ;
#205 = PLANE ( 'NONE',  #332 ) ;
#206 = LINE ( 'NONE', #89, #178 ) ;
#207 = LINE ( 'NONE', #77, #153 ) ;
#208 = FILL_AREA_STYLE_COLOUR ( '', #273 ) ;
#209 = CARTESIAN_POINT ( 'NONE',  ( -370.0000000000000000, 70.94012792986231400, 8.000000000000000000 ) ) ;
#210 = DIRECTION ( 'NONE',  ( -1.000000000000000000, 0.0000000000000000000, -0.0000000000000000000 ) ) ;
#211 = ORIENTED_EDGE ( 'NONE', *, *, #337, .T. ) ;
#212 = DIRECTION ( 'NONE',  ( -0.0000000000000000000, -0.0000000000000000000, -1.000000000000000000 ) ) ;
#213 = CARTESIAN_POINT ( 'NONE',  ( -740.0000000000000000, 240.0000000000000000, 8.000000000000000000 ) ) ;
#214 = ORIENTED_EDGE ( 'NONE', *, *, #149, .T. ) ;
#215 = DIRECTION ( 'NONE',  ( 1.000000000000000000, 0.0000000000000000000, 0.0000000000000000000 ) ) ;
#216 = VERTEX_POINT ( 'NONE', #91 ) ;
#217 = DIRECTION ( 'NONE',  ( -0.0000000000000000000, -0.0000000000000000000, -1.000000000000000000 ) ) ;
#218 = CARTESIAN_POINT ( 'NONE',  ( -740.0000000000000000, 240.0000000000000000, 8.000000000000000000 ) ) ;
#219 = AXIS2_PLACEMENT_3D ( 'NONE', #86, #148, #389 ) ;
#220 = VERTEX_POINT ( 'NONE', #50 ) ;
#221 = ORIENTED_EDGE ( 'NONE', *, *, #381, .F. ) ;
#222 = VECTOR ( 'NONE', #365, 1000.000000000000000 ) ;
#223 = CIRCLE ( 'NONE', #274, 10.00000000000000900 ) ;
#224 = ORIENTED_EDGE ( 'NONE', *, *, #262, .F. ) ;
#225 = ORIENTED_EDGE ( 'NONE', *, *, #239, .F. ) ;
#226 = DIRECTION ( 'NONE',  ( 1.000000000000000000, 0.0000000000000000000, 0.0000000000000000000 ) ) ;
#227 =( NAMED_UNIT ( * ) PLANE_ANGLE_UNIT ( ) SI_UNIT ( $, .RADIAN. ) );
#228 = ORIENTED_EDGE ( 'NONE', *, *, #326, .T. ) ;
#229 = AXIS2_PLACEMENT_3D ( 'NONE', #258, #233, #210 ) ;
#230 = LINE ( 'NONE', #151, #110 ) ;
#231 =( LENGTH_UNIT ( ) NAMED_UNIT ( * ) SI_UNIT ( .MILLI., .METRE. ) );
#232 = DIRECTION ( 'NONE',  ( -1.000000000000000000, 0.0000000000000000000, 0.0000000000000000000 ) ) ;
#233 = DIRECTION ( 'NONE',  ( 0.0000000000000000000, 0.0000000000000000000, -1.000000000000000000 ) ) ;
#234 = CARTESIAN_POINT ( 'NONE',  ( -10.00000000000000900, 250.0000000000000000, 8.000000000000000000 ) ) ;
#235 = ORIENTED_EDGE ( 'NONE', *, *, #254, .F. ) ;
#236 = AXIS2_PLACEMENT_3D ( 'NONE', #141, #359, #180 ) ;
#237 = DIRECTION ( 'NONE',  ( -1.000000000000000000, 0.0000000000000000000, 0.0000000000000000000 ) ) ;
#238 = CARTESIAN_POINT ( 'NONE',  ( -750.0000000000000000, 240.0000000000000000, 0.0000000000000000000 ) ) ;
#239 = EDGE_CURVE ( 'NONE', #66, #340, #277, .T. ) ;
#240 = DIRECTION ( 'NONE',  ( -1.000000000000000000, -1.224646799147353200E-016, 0.0000000000000000000 ) ) ;
#241 = DIRECTION ( 'NONE',  ( -9.912705577010325500E-017, 1.000000000000000000, 0.0000000000000000000 ) ) ;
#242 = SURFACE_SIDE_STYLE ('',( #296 ) ) ;
#243 = FACE_OUTER_BOUND ( 'NONE', #3, .T. ) ;
#244 = CARTESIAN_POINT ( 'NONE',  ( -10.00000000000000900, 240.0000000000000000, 8.000000000000000000 ) ) ;
#245 = CARTESIAN_POINT ( 'NONE',  ( -750.0000000000000000, 0.0000000000000000000, 0.0000000000000000000 ) ) ;
#246 = FACE_OUTER_BOUND ( 'NONE', #305, .T. ) ;
#247 = ORIENTED_EDGE ( 'NONE', *, *, #361, .T. ) ;
#248 = ORIENTED_EDGE ( 'NONE', *, *, #45, .T. ) ;
#249 = EDGE_CURVE ( 'NONE', #5, #340, #357, .T. ) ;
#250 = CYLINDRICAL_SURFACE ( 'NONE', #82, 10.00000000000000200 ) ;
#251 = DIRECTION ( 'NONE',  ( 1.000000000000000000, 1.102182119232617300E-016, -0.0000000000000000000 ) ) ;
#252 = LINE ( 'NONE', #19, #325 ) ;
#253 = LINE ( 'NONE', #299, #382 ) ;
#254 = EDGE_CURVE ( 'NONE', #47, #311, #170, .T. ) ;
#255 = ORIENTED_EDGE ( 'NONE', *, *, #380, .T. ) ;
#256 = PRODUCT_CONTEXT ( 'NONE', #173, 'mechanical' ) ;
#257 = EDGE_CURVE ( 'NONE', #220, #58, #32, .T. ) ;
#258 = CARTESIAN_POINT ( 'NONE',  ( 0.0000000000000000000, 0.0000000000000000000, 8.000000000000000000 ) ) ;
#259 = APPLICATION_PROTOCOL_DEFINITION ( 'draft international standard', 'automotive_design', 1998, #111 ) ;
#260 =( NAMED_UNIT ( * ) SI_UNIT ( $, .STERADIAN. ) SOLID_ANGLE_UNIT ( ) );
#261 = DIRECTION ( 'NONE',  ( -0.0000000000000000000, -0.0000000000000000000, -1.000000000000000000 ) ) ;
#262 = EDGE_CURVE ( 'NONE', #311, #66, #103, .T. ) ;
#263 = CARTESIAN_POINT ( 'NONE',  ( -750.0000000000000000, 0.0000000000000000000, 8.000000000000000000 ) ) ;
#264 = FACE_OUTER_BOUND ( 'NONE', #99, .T. ) ;
#265 = SURFACE_STYLE_FILL_AREA ( #44 ) ;
#266 = CARTESIAN_POINT ( 'NONE',  ( -750.0000000000000000, 0.0000000000000000000, 0.0000000000000000000 ) ) ;
#267 = CARTESIAN_POINT ( 'NONE',  ( 0.0000000000000000000, 0.0000000000000000000, 8.000000000000000000 ) ) ;
#268 = EDGE_LOOP ( 'NONE', ( #214, #375, #202, #201 ) ) ;
#269 = DIRECTION ( 'NONE',  ( 1.000000000000000000, 0.0000000000000000000, 0.0000000000000000000 ) ) ;
#270 = EDGE_LOOP ( 'NONE', ( #200, #221, #193, #160 ) ) ;
#271 = CARTESIAN_POINT ( 'NONE',  ( 0.0000000000000000000, 0.0000000000000000000, 8.000000000000000000 ) ) ;
#272 = EDGE_LOOP ( 'NONE', ( #228, #373, #204, #135, #90, #288, #68, #33, #369, #247 ) ) ;
#273 = COLOUR_RGB ( '',0.7921568627450980000, 0.8196078431372548800, 0.9333333333333333500 ) ;
#274 = AXIS2_PLACEMENT_3D ( 'NONE', #218, #30, #334 ) ;
#275 = FILL_AREA_STYLE_COLOUR ( '', #168 ) ;
#276 = DIRECTION ( 'NONE',  ( -0.0000000000000000000, -1.000000000000000000, -0.0000000000000000000 ) ) ;
#277 = LINE ( 'NONE', #267, #197 ) ;
#278 = ORIENTED_EDGE ( 'NONE', *, *, #339, .T. ) ;
#279 = AXIS2_PLACEMENT_3D ( 'NONE', #81, #323, #232 ) ;
#280 = ORIENTED_EDGE ( 'NONE', *, *, #383, .T. ) ;
#281 = SHAPE_DEFINITION_REPRESENTATION ( #347, #403 ) ;
#282 = VERTEX_POINT ( 'NONE', #234 ) ;
#283 = ADVANCED_FACE ( 'NONE', ( #309 ), #181, .F. ) ;
#284 = EDGE_CURVE ( 'NONE', #216, #396, #223, .T. ) ;
#285 = VECTOR ( 'NONE', #10, 1000.000000000000000 ) ;
#286 = VECTOR ( 'NONE', #114, 1000.000000000000000 ) ;
#287 = ORIENTED_EDGE ( 'NONE', *, *, #133, .T. ) ;
#288 = ORIENTED_EDGE ( 'NONE', *, *, #404, .T. ) ;
#289 = SURFACE_STYLE_USAGE ( .BOTH. , #76 ) ;
#290 = VERTEX_POINT ( 'NONE', #245 ) ;
#291 = MANIFOLD_SOLID_BREP ( 'Congé1', #313 ) ;
#292 = CARTESIAN_POINT ( 'NONE',  ( 1.175660927181458800E-014, 240.0000000000000000, 8.000000000000000000 ) ) ;
#293 =( GEOMETRIC_REPRESENTATION_CONTEXT ( 3 ) GLOBAL_UNCERTAINTY_ASSIGNED_CONTEXT ( ( #150 ) ) GLOBAL_UNIT_ASSIGNED_CONTEXT ( ( #394, #65, #60 ) ) REPRESENTATION_CONTEXT ( 'NONE', 'WORKASPACE' ) );
#294 = CARTESIAN_POINT ( 'NONE',  ( -750.0000000000000000, 240.0000000000000000, 8.000000000000000000 ) ) ;
#295 = LINE ( 'NONE', #294, #285 ) ;
#296 = SURFACE_STYLE_FILL_AREA ( #92 ) ;
#297 = CARTESIAN_POINT ( 'NONE',  ( 0.0000000000000000000, 0.0000000000000000000, 0.0000000000000000000 ) ) ;
#298 = PLANE ( 'NONE',  #219 ) ;
#299 = CARTESIAN_POINT ( 'NONE',  ( 1.224646799147352900E-014, 250.0000000000000000, 8.000000000000000000 ) ) ;
#300 = DIRECTION ( 'NONE',  ( -0.0000000000000000000, -0.0000000000000000000, 1.000000000000000000 ) ) ;
#301 = MECHANICAL_DESIGN_GEOMETRIC_PRESENTATION_REPRESENTATION (  '', ( #314 ), #310 ) ;
#302 = CARTESIAN_POINT ( 'NONE',  ( -510.0000000000000000, 70.94012792986230000, 8.000000000000000000 ) ) ;
#303 = VERTEX_POINT ( 'NONE', #93 ) ;
#304 = CARTESIAN_POINT ( 'NONE',  ( 0.0000000000000000000, 0.0000000000000000000, 0.0000000000000000000 ) ) ;
#305 = EDGE_LOOP ( 'NONE', ( #255, #182, #124, #321 ) ) ;
#306 = VERTEX_POINT ( 'NONE', #188 ) ;
#307 = CARTESIAN_POINT ( 'NONE',  ( -370.0000000000000000, -4.531193156845206800E-014, 8.000000000000000000 ) ) ;
#308 = LINE ( 'NONE', #56, #222 ) ;
#309 = FACE_OUTER_BOUND ( 'NONE', #400, .T. ) ;
#310 =( GEOMETRIC_REPRESENTATION_CONTEXT ( 3 ) GLOBAL_UNCERTAINTY_ASSIGNED_CONTEXT ( ( #1 ) ) GLOBAL_UNIT_ASSIGNED_CONTEXT ( ( #106, #227, #260 ) ) REPRESENTATION_CONTEXT ( 'NONE', 'WORKASPACE' ) );
#311 = VERTEX_POINT ( 'NONE', #121 ) ;
#312 = ADVANCED_FACE ( 'NONE', ( #198 ), #250, .T. ) ;
#313 = CLOSED_SHELL ( 'NONE', ( #341, #327, #164, #143, #36, #104, #283, #194, #102, #366, #12, #312 ) ) ;
#314 = STYLED_ITEM ( 'NONE', ( #172 ), #403 ) ;
#315 = LINE ( 'NONE', #333, #345 ) ;
#316 = ORIENTED_EDGE ( 'NONE', *, *, #239, .T. ) ;
#317 = VECTOR ( 'NONE', #145, 1000.000000000000000 ) ;
#318 = ORIENTED_EDGE ( 'NONE', *, *, #284, .F. ) ;
#319 = EDGE_CURVE ( 'NONE', #340, #127, #315, .T. ) ;
#320 = CARTESIAN_POINT ( 'NONE',  ( -750.0000000000000000, 0.0000000000000000000, 8.000000000000000000 ) ) ;
#321 = ORIENTED_EDGE ( 'NONE', *, *, #401, .T. ) ;
#322 = DIRECTION ( 'NONE',  ( 0.0000000000000000000, 0.0000000000000000000, 1.000000000000000000 ) ) ;
#323 = DIRECTION ( 'NONE',  ( 0.0000000000000000000, 0.0000000000000000000, -1.000000000000000000 ) ) ;
#324 = AXIS2_PLACEMENT_3D ( 'NONE', #4, #322, #226 ) ;
#325 = VECTOR ( 'NONE', #300, 1000.000000000000000 ) ;
#326 = EDGE_CURVE ( 'NONE', #282, #216, #230, .T. ) ;
#327 = ADVANCED_FACE ( 'NONE', ( #131 ), #125, .F. ) ;
#328 = ORIENTED_EDGE ( 'NONE', *, *, #149, .F. ) ;
#329 = CARTESIAN_POINT ( 'NONE',  ( -750.0000000000000000, 250.0000000000000000, 0.0000000000000000000 ) ) ;
#330 = ORIENTED_EDGE ( 'NONE', *, *, #98, .T. ) ;
#331 = CARTESIAN_POINT ( 'NONE',  ( -370.0000000000000000, -4.531193156845206800E-014, 8.000000000000000000 ) ) ;
#332 = AXIS2_PLACEMENT_3D ( 'NONE', #297, #109, #48 ) ;
#333 = CARTESIAN_POINT ( 'NONE',  ( 1.224646799147352900E-014, 250.0000000000000000, 0.0000000000000000000 ) ) ;
#334 = DIRECTION ( 'NONE',  ( -1.000000000000000000, 0.0000000000000000000, 0.0000000000000000000 ) ) ;
#335 = VECTOR ( 'NONE', #212, 1000.000000000000000 ) ;
#336 = LINE ( 'NONE', #320, #101 ) ;
#337 = EDGE_CURVE ( 'NONE', #346, #5, #126, .T. ) ;
#338 = ORIENTED_EDGE ( 'NONE', *, *, #196, .T. ) ;
#339 = EDGE_CURVE ( 'NONE', #311, #5, #371, .T. ) ;
#340 = VERTEX_POINT ( 'NONE', #123 ) ;
#341 = ADVANCED_FACE ( 'NONE', ( #243 ), #175, .F. ) ;
#342 = FACE_OUTER_BOUND ( 'NONE', #348, .T. ) ;
#343 = VECTOR ( 'NONE', #52, 1000.000000000000000 ) ;
#344 = FACE_OUTER_BOUND ( 'NONE', #42, .T. ) ;
#345 = VECTOR ( 'NONE', #190, 1000.000000000000000 ) ;
#346 = VERTEX_POINT ( 'NONE', #392 ) ;
#347 = PRODUCT_DEFINITION_SHAPE ( 'NONE', 'NONE',  #41 ) ;
#348 = EDGE_LOOP ( 'NONE', ( #318, #16, #88, #159 ) ) ;
#349 = ORIENTED_EDGE ( 'NONE', *, *, #401, .F. ) ;
#350 = DIRECTION ( 'NONE',  ( 1.000000000000000000, 1.102182119232617300E-016, -0.0000000000000000000 ) ) ;
#351 = VECTOR ( 'NONE', #261, 1000.000000000000000 ) ;
#352 = DIRECTION ( 'NONE',  ( -4.898587196589411800E-017, -1.000000000000000000, 0.0000000000000000000 ) ) ;
#353 = PRODUCT_RELATED_PRODUCT_CATEGORY ( 'part', '', ( #72 ) ) ;
#354 = CARTESIAN_POINT ( 'NONE',  ( -370.0000000000000000, 70.94012792986231400, 8.000000000000000000 ) ) ;
#355 = FACE_OUTER_BOUND ( 'NONE', #75, .T. ) ;
#356 = ORIENTED_EDGE ( 'NONE', *, *, #374, .F. ) ;
#357 = LINE ( 'NONE', #304, #138 ) ;
#358 = DIRECTION ( 'NONE',  ( -0.0000000000000000000, -0.0000000000000000000, -1.000000000000000000 ) ) ;
#359 = DIRECTION ( 'NONE',  ( 0.0000000000000000000, 0.0000000000000000000, -1.000000000000000000 ) ) ;
#360 = CARTESIAN_POINT ( 'NONE',  ( -510.0000000000000000, 70.94012792986230000, 0.0000000000000000000 ) ) ;
#361 = EDGE_CURVE ( 'NONE', #306, #282, #80, .T. ) ;
#362 = DIRECTION ( 'NONE',  ( -0.0000000000000000000, -1.000000000000000000, -0.0000000000000000000 ) ) ;
#363 = CARTESIAN_POINT ( 'NONE',  ( 1.175660927181458800E-014, 240.0000000000000000, 0.0000000000000000000 ) ) ;
#364 = CARTESIAN_POINT ( 'NONE',  ( -370.0000000000000000, 70.94012792986231400, 8.000000000000000000 ) ) ;
#365 = DIRECTION ( 'NONE',  ( -0.0000000000000000000, 1.000000000000000000, -0.0000000000000000000 ) ) ;
#366 = ADVANCED_FACE ( 'NONE', ( #157 ), #205, .T. ) ;
#367 = ORIENTED_EDGE ( 'NONE', *, *, #339, .F. ) ;
#368 = CARTESIAN_POINT ( 'NONE',  ( 0.0000000000000000000, 0.0000000000000000000, 8.000000000000000000 ) ) ;
#369 = ORIENTED_EDGE ( 'NONE', *, *, #37, .T. ) ;
#370 = DIRECTION ( 'NONE',  ( 0.0000000000000000000, 0.0000000000000000000, -1.000000000000000000 ) ) ;
#371 = LINE ( 'NONE', #307, #39 ) ;
#372 = DIRECTION ( 'NONE',  ( 0.0000000000000000000, -0.0000000000000000000, -1.000000000000000000 ) ) ;
#373 = ORIENTED_EDGE ( 'NONE', *, *, #284, .T. ) ;
#374 = EDGE_CURVE ( 'NONE', #396, #21, #336, .T. ) ;
#375 = ORIENTED_EDGE ( 'NONE', *, *, #105, .T. ) ;
#376 = VECTOR ( 'NONE', #251, 1000.000000000000000 ) ;
#377 = ORIENTED_EDGE ( 'NONE', *, *, #158, .T. ) ;
#378 = ORIENTED_EDGE ( 'NONE', *, *, #319, .F. ) ;
#379 = ORIENTED_EDGE ( 'NONE', *, *, #28, .T. ) ;
#380 = EDGE_CURVE ( 'NONE', #290, #58, #73, .T. ) ;
#381 = EDGE_CURVE ( 'NONE', #127, #306, #192, .T. ) ;
#382 = VECTOR ( 'NONE', #144, 1000.000000000000000 ) ;
#383 = EDGE_CURVE ( 'NONE', #117, #346, #207, .T. ) ;
#384 = CARTESIAN_POINT ( 'NONE',  ( -750.0000000000000000, 0.0000000000000000000, 8.000000000000000000 ) ) ;
#385 = CARTESIAN_POINT ( 'NONE',  ( -370.0000000000000000, -4.531193156845206800E-014, 0.0000000000000000000 ) ) ;
#386 = DIRECTION ( 'NONE',  ( -1.000000000000000000, -9.912705577010325500E-017, 0.0000000000000000000 ) ) ;
#387 = DIRECTION ( 'NONE',  ( -1.000000000000000000, 0.0000000000000000000, 0.0000000000000000000 ) ) ;
#388 = EDGE_LOOP ( 'NONE', ( #34, #248, #328, #61, #378, #169, #20, #113, #397, #100 ) ) ;
#389 = DIRECTION ( 'NONE',  ( -1.000000000000000000, -1.102182119232617300E-016, 0.0000000000000000000 ) ) ;
#390 = CARTESIAN_POINT ( 'NONE',  ( 0.0000000000000000000, 0.0000000000000000000, 8.000000000000000000 ) ) ;
#391 = EDGE_CURVE ( 'NONE', #303, #127, #195, .T. ) ;
#392 = CARTESIAN_POINT ( 'NONE',  ( -370.0000000000000000, 70.94012792986231400, 0.0000000000000000000 ) ) ;
#393 = LINE ( 'NONE', #11, #351 ) ;
#394 =( LENGTH_UNIT ( ) NAMED_UNIT ( * ) SI_UNIT ( .MILLI., .METRE. ) );
#395 = DIRECTION ( 'NONE',  ( 0.0000000000000000000, 0.0000000000000000000, -1.000000000000000000 ) ) ;
#396 = VERTEX_POINT ( 'NONE', #112 ) ;
#397 = ORIENTED_EDGE ( 'NONE', *, *, #196, .F. ) ;
#398 = VECTOR ( 'NONE', #25, 1000.000000000000000 ) ;
#399 = AXIS2_PLACEMENT_3D ( 'NONE', #79, #46, #6 ) ;
#400 = EDGE_LOOP ( 'NONE', ( #211, #367, #235, #377 ) ) ;
#401 = EDGE_CURVE ( 'NONE', #21, #290, #393, .T. ) ;
#402 = ORIENTED_EDGE ( 'NONE', *, *, #257, .T. ) ;
#403 = ADVANCED_BREP_SHAPE_REPRESENTATION ( 'Plexis 1', ( #291, #324 ), #128 ) ;
#404 = EDGE_CURVE ( 'NONE', #147, #47, #70, .T. ) ;
ENDSEC;
END-ISO-10303-21;
