ISO-10303-21;
HEADER;
/* Generated by software containing ST-Developer
 * from STEP Tools, Inc. (www.steptools.com) 
 */

FILE_DESCRIPTION(
/* description */ (''),
/* implementation_level */ '2;1');

FILE_NAME(
/* name */ 
'D:/Impression 3d/Modeles/Design Maison/Photo/Bronica/SQVol1.step',
/* time_stamp */ '2021-05-07T18:52:15+02:00',
/* author */ (''),
/* organization */ (''),
/* preprocessor_version */ 'ST-DEVELOPER v18.1',
/* originating_system */ 'Autodesk Translation Framework v10.6.0.1341',

/* authorisation */ '');

FILE_SCHEMA (('AUTOMOTIVE_DESIGN { 1 0 10303 214 3 1 1 }'));
ENDSEC;

DATA;
#10=MECHANICAL_DESIGN_GEOMETRIC_PRESENTATION_REPRESENTATION('',(#13),#531);
#11=SHAPE_REPRESENTATION_RELATIONSHIP('SRR','None',#538,#12);
#12=ADVANCED_BREP_SHAPE_REPRESENTATION('',(#14),#530);
#13=STYLED_ITEM('',(#547),#14);
#14=MANIFOLD_SOLID_BREP('Corps1',#315);
#15=FACE_BOUND('',#49,.T.);
#16=FACE_BOUND('',#50,.T.);
#17=FACE_BOUND('',#64,.T.);
#18=FACE_BOUND('',#65,.T.);
#19=PLANE('',#332);
#20=PLANE('',#333);
#21=PLANE('',#340);
#22=PLANE('',#345);
#23=PLANE('',#348);
#24=PLANE('',#349);
#25=PLANE('',#350);
#26=PLANE('',#351);
#27=PLANE('',#352);
#28=PLANE('',#353);
#29=PLANE('',#354);
#30=FACE_OUTER_BOUND('',#46,.T.);
#31=FACE_OUTER_BOUND('',#47,.T.);
#32=FACE_OUTER_BOUND('',#48,.T.);
#33=FACE_OUTER_BOUND('',#51,.T.);
#34=FACE_OUTER_BOUND('',#52,.T.);
#35=FACE_OUTER_BOUND('',#53,.T.);
#36=FACE_OUTER_BOUND('',#54,.T.);
#37=FACE_OUTER_BOUND('',#55,.T.);
#38=FACE_OUTER_BOUND('',#56,.T.);
#39=FACE_OUTER_BOUND('',#57,.T.);
#40=FACE_OUTER_BOUND('',#58,.T.);
#41=FACE_OUTER_BOUND('',#59,.T.);
#42=FACE_OUTER_BOUND('',#60,.T.);
#43=FACE_OUTER_BOUND('',#61,.T.);
#44=FACE_OUTER_BOUND('',#62,.T.);
#45=FACE_OUTER_BOUND('',#63,.T.);
#46=EDGE_LOOP('',(#210,#211,#212,#213));
#47=EDGE_LOOP('',(#214,#215,#216,#217));
#48=EDGE_LOOP('',(#218,#219,#220,#221,#222,#223,#224,#225,#226,#227,#228,
#229));
#49=EDGE_LOOP('',(#230));
#50=EDGE_LOOP('',(#231));
#51=EDGE_LOOP('',(#232,#233,#234,#235));
#52=EDGE_LOOP('',(#236,#237,#238,#239));
#53=EDGE_LOOP('',(#240,#241,#242,#243));
#54=EDGE_LOOP('',(#244,#245,#246,#247));
#55=EDGE_LOOP('',(#248,#249,#250,#251));
#56=EDGE_LOOP('',(#252,#253,#254,#255));
#57=EDGE_LOOP('',(#256,#257,#258,#259));
#58=EDGE_LOOP('',(#260,#261,#262,#263));
#59=EDGE_LOOP('',(#264,#265,#266,#267));
#60=EDGE_LOOP('',(#268,#269,#270,#271));
#61=EDGE_LOOP('',(#272,#273,#274,#275));
#62=EDGE_LOOP('',(#276,#277,#278,#279));
#63=EDGE_LOOP('',(#280,#281,#282,#283,#284,#285,#286,#287,#288,#289,#290,
#291));
#64=EDGE_LOOP('',(#292));
#65=EDGE_LOOP('',(#293));
#66=LINE('',#447,#98);
#67=LINE('',#450,#99);
#68=LINE('',#453,#100);
#69=LINE('',#455,#101);
#70=LINE('',#456,#102);
#71=LINE('',#459,#103);
#72=LINE('',#463,#104);
#73=LINE('',#467,#105);
#74=LINE('',#469,#106);
#75=LINE('',#471,#107);
#76=LINE('',#473,#108);
#77=LINE('',#475,#109);
#78=LINE('',#476,#110);
#79=LINE('',#483,#111);
#80=LINE('',#486,#112);
#81=LINE('',#489,#113);
#82=LINE('',#490,#114);
#83=LINE('',#493,#115);
#84=LINE('',#497,#116);
#85=LINE('',#501,#117);
#86=LINE('',#502,#118);
#87=LINE('',#506,#119);
#88=LINE('',#508,#120);
#89=LINE('',#511,#121);
#90=LINE('',#512,#122);
#91=LINE('',#515,#123);
#92=LINE('',#516,#124);
#93=LINE('',#519,#125);
#94=LINE('',#520,#126);
#95=LINE('',#523,#127);
#96=LINE('',#524,#128);
#97=LINE('',#526,#129);
#98=VECTOR('',#361,10.);
#99=VECTOR('',#364,10.);
#100=VECTOR('',#367,10.);
#101=VECTOR('',#368,10.);
#102=VECTOR('',#369,10.);
#103=VECTOR('',#372,10.);
#104=VECTOR('',#375,10.);
#105=VECTOR('',#378,10.);
#106=VECTOR('',#379,10.);
#107=VECTOR('',#380,10.);
#108=VECTOR('',#381,10.);
#109=VECTOR('',#382,10.);
#110=VECTOR('',#383,10.);
#111=VECTOR('',#390,10.);
#112=VECTOR('',#393,10.);
#113=VECTOR('',#396,10.);
#114=VECTOR('',#397,10.);
#115=VECTOR('',#400,0.9);
#116=VECTOR('',#405,0.899999999999998);
#117=VECTOR('',#410,10.);
#118=VECTOR('',#411,10.);
#119=VECTOR('',#416,10.);
#120=VECTOR('',#419,10.);
#121=VECTOR('',#422,10.);
#122=VECTOR('',#423,10.);
#123=VECTOR('',#426,10.);
#124=VECTOR('',#427,10.);
#125=VECTOR('',#430,10.);
#126=VECTOR('',#431,10.);
#127=VECTOR('',#434,10.);
#128=VECTOR('',#435,10.);
#129=VECTOR('',#438,10.);
#130=CIRCLE('',#330,3.);
#131=CIRCLE('',#331,3.);
#132=CIRCLE('',#334,225.);
#133=CIRCLE('',#335,3.);
#134=CIRCLE('',#336,0.899999999999999);
#135=CIRCLE('',#337,0.9);
#136=CIRCLE('',#339,3.);
#137=CIRCLE('',#342,0.9);
#138=CIRCLE('',#344,0.899999999999999);
#139=CIRCLE('',#347,225.);
#140=VERTEX_POINT('',#443);
#141=VERTEX_POINT('',#444);
#142=VERTEX_POINT('',#446);
#143=VERTEX_POINT('',#448);
#144=VERTEX_POINT('',#452);
#145=VERTEX_POINT('',#454);
#146=VERTEX_POINT('',#458);
#147=VERTEX_POINT('',#460);
#148=VERTEX_POINT('',#462);
#149=VERTEX_POINT('',#464);
#150=VERTEX_POINT('',#466);
#151=VERTEX_POINT('',#468);
#152=VERTEX_POINT('',#470);
#153=VERTEX_POINT('',#472);
#154=VERTEX_POINT('',#474);
#155=VERTEX_POINT('',#477);
#156=VERTEX_POINT('',#479);
#157=VERTEX_POINT('',#482);
#158=VERTEX_POINT('',#484);
#159=VERTEX_POINT('',#488);
#160=VERTEX_POINT('',#492);
#161=VERTEX_POINT('',#496);
#162=VERTEX_POINT('',#500);
#163=VERTEX_POINT('',#504);
#164=VERTEX_POINT('',#510);
#165=VERTEX_POINT('',#514);
#166=VERTEX_POINT('',#518);
#167=VERTEX_POINT('',#522);
#168=EDGE_CURVE('',#140,#141,#130,.T.);
#169=EDGE_CURVE('',#141,#142,#66,.T.);
#170=EDGE_CURVE('',#142,#143,#131,.T.);
#171=EDGE_CURVE('',#143,#140,#67,.T.);
#172=EDGE_CURVE('',#144,#141,#68,.T.);
#173=EDGE_CURVE('',#145,#144,#69,.T.);
#174=EDGE_CURVE('',#142,#145,#70,.T.);
#175=EDGE_CURVE('',#140,#146,#71,.T.);
#176=EDGE_CURVE('',#146,#147,#132,.T.);
#177=EDGE_CURVE('',#147,#148,#72,.T.);
#178=EDGE_CURVE('',#149,#148,#133,.T.);
#179=EDGE_CURVE('',#149,#150,#73,.T.);
#180=EDGE_CURVE('',#150,#151,#74,.T.);
#181=EDGE_CURVE('',#151,#152,#75,.T.);
#182=EDGE_CURVE('',#152,#153,#76,.T.);
#183=EDGE_CURVE('',#153,#154,#77,.T.);
#184=EDGE_CURVE('',#154,#144,#78,.T.);
#185=EDGE_CURVE('',#155,#155,#134,.T.);
#186=EDGE_CURVE('',#156,#156,#135,.T.);
#187=EDGE_CURVE('',#148,#157,#79,.T.);
#188=EDGE_CURVE('',#157,#158,#136,.T.);
#189=EDGE_CURVE('',#158,#149,#80,.T.);
#190=EDGE_CURVE('',#159,#158,#81,.T.);
#191=EDGE_CURVE('',#159,#150,#82,.T.);
#192=EDGE_CURVE('',#156,#160,#83,.T.);
#193=EDGE_CURVE('',#160,#160,#137,.T.);
#194=EDGE_CURVE('',#155,#161,#84,.T.);
#195=EDGE_CURVE('',#161,#161,#138,.T.);
#196=EDGE_CURVE('',#162,#147,#85,.T.);
#197=EDGE_CURVE('',#157,#162,#86,.T.);
#198=EDGE_CURVE('',#162,#163,#139,.T.);
#199=EDGE_CURVE('',#163,#146,#87,.T.);
#200=EDGE_CURVE('',#163,#143,#88,.T.);
#201=EDGE_CURVE('',#145,#164,#89,.T.);
#202=EDGE_CURVE('',#164,#154,#90,.T.);
#203=EDGE_CURVE('',#164,#165,#91,.T.);
#204=EDGE_CURVE('',#165,#153,#92,.T.);
#205=EDGE_CURVE('',#165,#166,#93,.T.);
#206=EDGE_CURVE('',#166,#152,#94,.T.);
#207=EDGE_CURVE('',#166,#167,#95,.T.);
#208=EDGE_CURVE('',#167,#151,#96,.T.);
#209=EDGE_CURVE('',#167,#159,#97,.T.);
#210=ORIENTED_EDGE('',*,*,#168,.T.);
#211=ORIENTED_EDGE('',*,*,#169,.T.);
#212=ORIENTED_EDGE('',*,*,#170,.T.);
#213=ORIENTED_EDGE('',*,*,#171,.T.);
#214=ORIENTED_EDGE('',*,*,#169,.F.);
#215=ORIENTED_EDGE('',*,*,#172,.F.);
#216=ORIENTED_EDGE('',*,*,#173,.F.);
#217=ORIENTED_EDGE('',*,*,#174,.F.);
#218=ORIENTED_EDGE('',*,*,#168,.F.);
#219=ORIENTED_EDGE('',*,*,#175,.T.);
#220=ORIENTED_EDGE('',*,*,#176,.T.);
#221=ORIENTED_EDGE('',*,*,#177,.T.);
#222=ORIENTED_EDGE('',*,*,#178,.F.);
#223=ORIENTED_EDGE('',*,*,#179,.T.);
#224=ORIENTED_EDGE('',*,*,#180,.T.);
#225=ORIENTED_EDGE('',*,*,#181,.T.);
#226=ORIENTED_EDGE('',*,*,#182,.T.);
#227=ORIENTED_EDGE('',*,*,#183,.T.);
#228=ORIENTED_EDGE('',*,*,#184,.T.);
#229=ORIENTED_EDGE('',*,*,#172,.T.);
#230=ORIENTED_EDGE('',*,*,#185,.T.);
#231=ORIENTED_EDGE('',*,*,#186,.T.);
#232=ORIENTED_EDGE('',*,*,#178,.T.);
#233=ORIENTED_EDGE('',*,*,#187,.T.);
#234=ORIENTED_EDGE('',*,*,#188,.T.);
#235=ORIENTED_EDGE('',*,*,#189,.T.);
#236=ORIENTED_EDGE('',*,*,#189,.F.);
#237=ORIENTED_EDGE('',*,*,#190,.F.);
#238=ORIENTED_EDGE('',*,*,#191,.T.);
#239=ORIENTED_EDGE('',*,*,#179,.F.);
#240=ORIENTED_EDGE('',*,*,#186,.F.);
#241=ORIENTED_EDGE('',*,*,#192,.T.);
#242=ORIENTED_EDGE('',*,*,#193,.T.);
#243=ORIENTED_EDGE('',*,*,#192,.F.);
#244=ORIENTED_EDGE('',*,*,#185,.F.);
#245=ORIENTED_EDGE('',*,*,#194,.T.);
#246=ORIENTED_EDGE('',*,*,#195,.T.);
#247=ORIENTED_EDGE('',*,*,#194,.F.);
#248=ORIENTED_EDGE('',*,*,#187,.F.);
#249=ORIENTED_EDGE('',*,*,#177,.F.);
#250=ORIENTED_EDGE('',*,*,#196,.F.);
#251=ORIENTED_EDGE('',*,*,#197,.F.);
#252=ORIENTED_EDGE('',*,*,#198,.F.);
#253=ORIENTED_EDGE('',*,*,#196,.T.);
#254=ORIENTED_EDGE('',*,*,#176,.F.);
#255=ORIENTED_EDGE('',*,*,#199,.F.);
#256=ORIENTED_EDGE('',*,*,#171,.F.);
#257=ORIENTED_EDGE('',*,*,#200,.F.);
#258=ORIENTED_EDGE('',*,*,#199,.T.);
#259=ORIENTED_EDGE('',*,*,#175,.F.);
#260=ORIENTED_EDGE('',*,*,#201,.F.);
#261=ORIENTED_EDGE('',*,*,#173,.T.);
#262=ORIENTED_EDGE('',*,*,#184,.F.);
#263=ORIENTED_EDGE('',*,*,#202,.F.);
#264=ORIENTED_EDGE('',*,*,#203,.F.);
#265=ORIENTED_EDGE('',*,*,#202,.T.);
#266=ORIENTED_EDGE('',*,*,#183,.F.);
#267=ORIENTED_EDGE('',*,*,#204,.F.);
#268=ORIENTED_EDGE('',*,*,#205,.F.);
#269=ORIENTED_EDGE('',*,*,#204,.T.);
#270=ORIENTED_EDGE('',*,*,#182,.F.);
#271=ORIENTED_EDGE('',*,*,#206,.F.);
#272=ORIENTED_EDGE('',*,*,#207,.F.);
#273=ORIENTED_EDGE('',*,*,#206,.T.);
#274=ORIENTED_EDGE('',*,*,#181,.F.);
#275=ORIENTED_EDGE('',*,*,#208,.F.);
#276=ORIENTED_EDGE('',*,*,#209,.F.);
#277=ORIENTED_EDGE('',*,*,#208,.T.);
#278=ORIENTED_EDGE('',*,*,#180,.F.);
#279=ORIENTED_EDGE('',*,*,#191,.F.);
#280=ORIENTED_EDGE('',*,*,#170,.F.);
#281=ORIENTED_EDGE('',*,*,#174,.T.);
#282=ORIENTED_EDGE('',*,*,#201,.T.);
#283=ORIENTED_EDGE('',*,*,#203,.T.);
#284=ORIENTED_EDGE('',*,*,#205,.T.);
#285=ORIENTED_EDGE('',*,*,#207,.T.);
#286=ORIENTED_EDGE('',*,*,#209,.T.);
#287=ORIENTED_EDGE('',*,*,#190,.T.);
#288=ORIENTED_EDGE('',*,*,#188,.F.);
#289=ORIENTED_EDGE('',*,*,#197,.T.);
#290=ORIENTED_EDGE('',*,*,#198,.T.);
#291=ORIENTED_EDGE('',*,*,#200,.T.);
#292=ORIENTED_EDGE('',*,*,#195,.F.);
#293=ORIENTED_EDGE('',*,*,#193,.F.);
#294=CYLINDRICAL_SURFACE('',#329,3.);
#295=CYLINDRICAL_SURFACE('',#338,3.);
#296=CYLINDRICAL_SURFACE('',#341,0.9);
#297=CYLINDRICAL_SURFACE('',#343,0.899999999999999);
#298=CYLINDRICAL_SURFACE('',#346,225.);
#299=ADVANCED_FACE('',(#30),#294,.T.);
#300=ADVANCED_FACE('',(#31),#19,.T.);
#301=ADVANCED_FACE('',(#32,#15,#16),#20,.T.);
#302=ADVANCED_FACE('',(#33),#295,.T.);
#303=ADVANCED_FACE('',(#34),#21,.T.);
#304=ADVANCED_FACE('',(#35),#296,.F.);
#305=ADVANCED_FACE('',(#36),#297,.F.);
#306=ADVANCED_FACE('',(#37),#22,.T.);
#307=ADVANCED_FACE('',(#38),#298,.F.);
#308=ADVANCED_FACE('',(#39),#23,.T.);
#309=ADVANCED_FACE('',(#40),#24,.T.);
#310=ADVANCED_FACE('',(#41),#25,.T.);
#311=ADVANCED_FACE('',(#42),#26,.T.);
#312=ADVANCED_FACE('',(#43),#27,.T.);
#313=ADVANCED_FACE('',(#44),#28,.T.);
#314=ADVANCED_FACE('',(#45,#17,#18),#29,.F.);
#315=CLOSED_SHELL('',(#299,#300,#301,#302,#303,#304,#305,#306,#307,#308,
#309,#310,#311,#312,#313,#314));
#316=DERIVED_UNIT_ELEMENT(#318,1.);
#317=DERIVED_UNIT_ELEMENT(#533,-3.);
#318=(
MASS_UNIT()
NAMED_UNIT(*)
SI_UNIT(.KILO.,.GRAM.)
);
#319=DERIVED_UNIT((#316,#317));
#320=MEASURE_REPRESENTATION_ITEM('density measure',
POSITIVE_RATIO_MEASURE(7850.),#319);
#321=PROPERTY_DEFINITION_REPRESENTATION(#326,#323);
#322=PROPERTY_DEFINITION_REPRESENTATION(#327,#324);
#323=REPRESENTATION('material name',(#325),#530);
#324=REPRESENTATION('density',(#320),#530);
#325=DESCRIPTIVE_REPRESENTATION_ITEM('Acier','Acier');
#326=PROPERTY_DEFINITION('material property','material name',#540);
#327=PROPERTY_DEFINITION('material property','density of part',#540);
#328=AXIS2_PLACEMENT_3D('placement',#441,#355,#356);
#329=AXIS2_PLACEMENT_3D('',#442,#357,#358);
#330=AXIS2_PLACEMENT_3D('',#445,#359,#360);
#331=AXIS2_PLACEMENT_3D('',#449,#362,#363);
#332=AXIS2_PLACEMENT_3D('',#451,#365,#366);
#333=AXIS2_PLACEMENT_3D('',#457,#370,#371);
#334=AXIS2_PLACEMENT_3D('',#461,#373,#374);
#335=AXIS2_PLACEMENT_3D('',#465,#376,#377);
#336=AXIS2_PLACEMENT_3D('',#478,#384,#385);
#337=AXIS2_PLACEMENT_3D('',#480,#386,#387);
#338=AXIS2_PLACEMENT_3D('',#481,#388,#389);
#339=AXIS2_PLACEMENT_3D('',#485,#391,#392);
#340=AXIS2_PLACEMENT_3D('',#487,#394,#395);
#341=AXIS2_PLACEMENT_3D('',#491,#398,#399);
#342=AXIS2_PLACEMENT_3D('',#494,#401,#402);
#343=AXIS2_PLACEMENT_3D('',#495,#403,#404);
#344=AXIS2_PLACEMENT_3D('',#498,#406,#407);
#345=AXIS2_PLACEMENT_3D('',#499,#408,#409);
#346=AXIS2_PLACEMENT_3D('',#503,#412,#413);
#347=AXIS2_PLACEMENT_3D('',#505,#414,#415);
#348=AXIS2_PLACEMENT_3D('',#507,#417,#418);
#349=AXIS2_PLACEMENT_3D('',#509,#420,#421);
#350=AXIS2_PLACEMENT_3D('',#513,#424,#425);
#351=AXIS2_PLACEMENT_3D('',#517,#428,#429);
#352=AXIS2_PLACEMENT_3D('',#521,#432,#433);
#353=AXIS2_PLACEMENT_3D('',#525,#436,#437);
#354=AXIS2_PLACEMENT_3D('',#527,#439,#440);
#355=DIRECTION('axis',(0.,0.,1.));
#356=DIRECTION('refdir',(1.,0.,0.));
#357=DIRECTION('center_axis',(0.,1.,0.));
#358=DIRECTION('ref_axis',(0.707106781186545,0.,0.70710678118655));
#359=DIRECTION('center_axis',(0.,-1.,0.));
#360=DIRECTION('ref_axis',(0.707106781186545,0.,0.70710678118655));
#361=DIRECTION('',(0.,-1.,0.));
#362=DIRECTION('center_axis',(0.,1.,0.));
#363=DIRECTION('ref_axis',(0.707106781186545,0.,0.70710678118655));
#364=DIRECTION('',(0.,1.,0.));
#365=DIRECTION('center_axis',(0.,0.,1.));
#366=DIRECTION('ref_axis',(1.,0.,0.));
#367=DIRECTION('',(1.,0.,0.));
#368=DIRECTION('',(0.,1.,0.));
#369=DIRECTION('',(-1.,0.,0.));
#370=DIRECTION('center_axis',(0.,1.,0.));
#371=DIRECTION('ref_axis',(1.,0.,0.));
#372=DIRECTION('',(0.,0.,-1.));
#373=DIRECTION('center_axis',(0.,-1.,0.));
#374=DIRECTION('ref_axis',(1.,0.,0.));
#375=DIRECTION('',(0.,0.,-1.));
#376=DIRECTION('center_axis',(0.,-1.,0.));
#377=DIRECTION('ref_axis',(0.707106781186548,0.,-0.707106781186547));
#378=DIRECTION('',(-1.,0.,-5.97621897894706E-33));
#379=DIRECTION('',(0.,0.,1.));
#380=DIRECTION('',(1.,0.,0.));
#381=DIRECTION('',(0.,0.,-1.));
#382=DIRECTION('',(1.,0.,0.));
#383=DIRECTION('',(0.,0.,1.));
#384=DIRECTION('center_axis',(0.,-1.,0.));
#385=DIRECTION('ref_axis',(1.,0.,0.));
#386=DIRECTION('center_axis',(0.,-1.,0.));
#387=DIRECTION('ref_axis',(1.,0.,0.));
#388=DIRECTION('center_axis',(0.,1.,0.));
#389=DIRECTION('ref_axis',(0.707106781186548,0.,-0.707106781186547));
#390=DIRECTION('',(0.,-1.,0.));
#391=DIRECTION('center_axis',(0.,1.,0.));
#392=DIRECTION('ref_axis',(0.707106781186548,0.,-0.707106781186547));
#393=DIRECTION('',(0.,1.,0.));
#394=DIRECTION('center_axis',(5.97621897894706E-33,0.,-1.));
#395=DIRECTION('ref_axis',(-1.,0.,-5.97621897894706E-33));
#396=DIRECTION('',(1.,0.,5.97621897894706E-33));
#397=DIRECTION('',(0.,1.,0.));
#398=DIRECTION('center_axis',(0.,1.,0.));
#399=DIRECTION('ref_axis',(1.,0.,0.));
#400=DIRECTION('',(0.,-1.,0.));
#401=DIRECTION('center_axis',(0.,-1.,0.));
#402=DIRECTION('ref_axis',(1.,0.,0.));
#403=DIRECTION('center_axis',(0.,1.,0.));
#404=DIRECTION('ref_axis',(1.,0.,0.));
#405=DIRECTION('',(0.,-1.,0.));
#406=DIRECTION('center_axis',(0.,-1.,0.));
#407=DIRECTION('ref_axis',(1.,0.,0.));
#408=DIRECTION('center_axis',(1.,0.,0.));
#409=DIRECTION('ref_axis',(0.,0.,-1.));
#410=DIRECTION('',(0.,1.,0.));
#411=DIRECTION('',(0.,0.,1.));
#412=DIRECTION('center_axis',(0.,1.,0.));
#413=DIRECTION('ref_axis',(-1.,0.,-1.22464679914735E-16));
#414=DIRECTION('center_axis',(0.,1.,0.));
#415=DIRECTION('ref_axis',(1.,0.,0.));
#416=DIRECTION('',(0.,1.,0.));
#417=DIRECTION('center_axis',(1.,0.,0.));
#418=DIRECTION('ref_axis',(0.,0.,-1.));
#419=DIRECTION('',(0.,0.,1.));
#420=DIRECTION('center_axis',(-1.,0.,0.));
#421=DIRECTION('ref_axis',(0.,0.,1.));
#422=DIRECTION('',(0.,0.,-1.));
#423=DIRECTION('',(0.,1.,0.));
#424=DIRECTION('center_axis',(0.,0.,1.));
#425=DIRECTION('ref_axis',(1.,0.,0.));
#426=DIRECTION('',(-1.,0.,0.));
#427=DIRECTION('',(0.,1.,0.));
#428=DIRECTION('center_axis',(1.,0.,0.));
#429=DIRECTION('ref_axis',(0.,0.,-1.));
#430=DIRECTION('',(0.,0.,1.));
#431=DIRECTION('',(0.,1.,0.));
#432=DIRECTION('center_axis',(0.,0.,1.));
#433=DIRECTION('ref_axis',(1.,0.,0.));
#434=DIRECTION('',(-1.,0.,0.));
#435=DIRECTION('',(0.,1.,0.));
#436=DIRECTION('center_axis',(-1.,0.,0.));
#437=DIRECTION('ref_axis',(0.,0.,1.));
#438=DIRECTION('',(0.,0.,-1.));
#439=DIRECTION('center_axis',(0.,1.,0.));
#440=DIRECTION('ref_axis',(1.,0.,0.));
#441=CARTESIAN_POINT('',(0.,0.,0.));
#442=CARTESIAN_POINT('Origin',(79.5,0.,62.));
#443=CARTESIAN_POINT('',(82.5,0.3,62.));
#444=CARTESIAN_POINT('',(79.5,0.3,65.));
#445=CARTESIAN_POINT('Origin',(79.5,0.3,62.));
#446=CARTESIAN_POINT('',(79.5,0.,65.));
#447=CARTESIAN_POINT('',(79.5,0.,65.));
#448=CARTESIAN_POINT('',(82.5,0.,62.));
#449=CARTESIAN_POINT('Origin',(79.5,0.,62.));
#450=CARTESIAN_POINT('',(82.5,0.,62.));
#451=CARTESIAN_POINT('Origin',(6.94,0.,65.));
#452=CARTESIAN_POINT('',(6.94,0.3,65.));
#453=CARTESIAN_POINT('',(82.5,0.3,65.));
#454=CARTESIAN_POINT('',(6.94,0.,65.));
#455=CARTESIAN_POINT('',(6.94,0.,65.));
#456=CARTESIAN_POINT('',(82.5,0.,65.));
#457=CARTESIAN_POINT('Origin',(41.25,0.3,32.5));
#458=CARTESIAN_POINT('',(82.5,0.3,58.4374246986857));
#459=CARTESIAN_POINT('',(82.5,0.3,4.93038065763132E-31));
#460=CARTESIAN_POINT('',(82.5,0.3,6.5625753013143));
#461=CARTESIAN_POINT('Origin',(306.,0.3,32.5));
#462=CARTESIAN_POINT('',(82.5,0.3,3.));
#463=CARTESIAN_POINT('',(82.5,0.3,4.93038065763132E-31));
#464=CARTESIAN_POINT('',(79.5,0.3,4.75109408826291E-31));
#465=CARTESIAN_POINT('Origin',(79.5,0.3,3.));
#466=CARTESIAN_POINT('',(0.,0.3,0.));
#467=CARTESIAN_POINT('',(0.,0.3,0.));
#468=CARTESIAN_POINT('',(0.,0.3,65.));
#469=CARTESIAN_POINT('',(0.,0.3,65.));
#470=CARTESIAN_POINT('',(5.7,0.3,65.));
#471=CARTESIAN_POINT('',(82.5,0.3,65.));
#472=CARTESIAN_POINT('',(5.7,0.3,62.3));
#473=CARTESIAN_POINT('',(5.7,0.3,62.3));
#474=CARTESIAN_POINT('',(6.94,0.3,62.3));
#475=CARTESIAN_POINT('',(6.94,0.3,62.3));
#476=CARTESIAN_POINT('',(6.94,0.3,65.));
#477=CARTESIAN_POINT('',(1.10000002980232,0.3,62.));
#478=CARTESIAN_POINT('Origin',(2.00000002980232,0.3,62.));
#479=CARTESIAN_POINT('',(1.1,0.3,3.));
#480=CARTESIAN_POINT('Origin',(2.,0.3,3.));
#481=CARTESIAN_POINT('Origin',(79.5,0.,3.));
#482=CARTESIAN_POINT('',(82.5,0.,3.));
#483=CARTESIAN_POINT('',(82.5,0.,3.));
#484=CARTESIAN_POINT('',(79.5,0.,4.75109408826291E-31));
#485=CARTESIAN_POINT('Origin',(79.5,0.,3.));
#486=CARTESIAN_POINT('',(79.5,0.,0.));
#487=CARTESIAN_POINT('Origin',(82.5,0.,4.93038065763132E-31));
#488=CARTESIAN_POINT('',(0.,0.,0.));
#489=CARTESIAN_POINT('',(0.,0.,0.));
#490=CARTESIAN_POINT('',(0.,0.,0.));
#491=CARTESIAN_POINT('Origin',(2.,0.,3.));
#492=CARTESIAN_POINT('',(1.1,0.,3.));
#493=CARTESIAN_POINT('',(1.1,0.,3.));
#494=CARTESIAN_POINT('Origin',(2.,0.,3.));
#495=CARTESIAN_POINT('Origin',(2.00000002980232,0.,62.));
#496=CARTESIAN_POINT('',(1.10000002980232,0.,62.));
#497=CARTESIAN_POINT('',(1.10000002980232,0.,62.));
#498=CARTESIAN_POINT('Origin',(2.00000002980232,0.,62.));
#499=CARTESIAN_POINT('Origin',(82.5,0.,6.5625753013143));
#500=CARTESIAN_POINT('',(82.5,0.,6.5625753013143));
#501=CARTESIAN_POINT('',(82.5,0.,6.5625753013143));
#502=CARTESIAN_POINT('',(82.5,0.,4.93038065763132E-31));
#503=CARTESIAN_POINT('Origin',(306.,0.,32.5));
#504=CARTESIAN_POINT('',(82.5,0.,58.4374246986857));
#505=CARTESIAN_POINT('Origin',(306.,0.,32.5));
#506=CARTESIAN_POINT('',(82.5,0.,58.4374246986857));
#507=CARTESIAN_POINT('Origin',(82.5,0.,65.));
#508=CARTESIAN_POINT('',(82.5,0.,4.93038065763132E-31));
#509=CARTESIAN_POINT('Origin',(6.94,0.,62.3));
#510=CARTESIAN_POINT('',(6.94,0.,62.3));
#511=CARTESIAN_POINT('',(6.94,0.,65.));
#512=CARTESIAN_POINT('',(6.94,0.,62.3));
#513=CARTESIAN_POINT('Origin',(5.7,0.,62.3));
#514=CARTESIAN_POINT('',(5.7,0.,62.3));
#515=CARTESIAN_POINT('',(6.94,0.,62.3));
#516=CARTESIAN_POINT('',(5.7,0.,62.3));
#517=CARTESIAN_POINT('Origin',(5.7,0.,65.));
#518=CARTESIAN_POINT('',(5.7,0.,65.));
#519=CARTESIAN_POINT('',(5.7,0.,62.3));
#520=CARTESIAN_POINT('',(5.7,0.,65.));
#521=CARTESIAN_POINT('Origin',(0.,0.,65.));
#522=CARTESIAN_POINT('',(0.,0.,65.));
#523=CARTESIAN_POINT('',(82.5,0.,65.));
#524=CARTESIAN_POINT('',(0.,0.,65.));
#525=CARTESIAN_POINT('Origin',(0.,0.,0.));
#526=CARTESIAN_POINT('',(0.,0.,65.));
#527=CARTESIAN_POINT('Origin',(41.25,0.,32.5));
#528=UNCERTAINTY_MEASURE_WITH_UNIT(LENGTH_MEASURE(0.01),#532,
'DISTANCE_ACCURACY_VALUE',
'Maximum model space distance between geometric entities at asserted c
onnectivities');
#529=UNCERTAINTY_MEASURE_WITH_UNIT(LENGTH_MEASURE(0.01),#532,
'DISTANCE_ACCURACY_VALUE',
'Maximum model space distance between geometric entities at asserted c
onnectivities');
#530=(
GEOMETRIC_REPRESENTATION_CONTEXT(3)
GLOBAL_UNCERTAINTY_ASSIGNED_CONTEXT((#528))
GLOBAL_UNIT_ASSIGNED_CONTEXT((#532,#534,#535))
REPRESENTATION_CONTEXT('','3D')
);
#531=(
GEOMETRIC_REPRESENTATION_CONTEXT(3)
GLOBAL_UNCERTAINTY_ASSIGNED_CONTEXT((#529))
GLOBAL_UNIT_ASSIGNED_CONTEXT((#532,#534,#535))
REPRESENTATION_CONTEXT('','3D')
);
#532=(
LENGTH_UNIT()
NAMED_UNIT(*)
SI_UNIT(.MILLI.,.METRE.)
);
#533=(
LENGTH_UNIT()
NAMED_UNIT(*)
SI_UNIT($,.METRE.)
);
#534=(
NAMED_UNIT(*)
PLANE_ANGLE_UNIT()
SI_UNIT($,.RADIAN.)
);
#535=(
NAMED_UNIT(*)
SI_UNIT($,.STERADIAN.)
SOLID_ANGLE_UNIT()
);
#536=SHAPE_DEFINITION_REPRESENTATION(#537,#538);
#537=PRODUCT_DEFINITION_SHAPE('',$,#540);
#538=SHAPE_REPRESENTATION('',(#328),#530);
#539=PRODUCT_DEFINITION_CONTEXT('part definition',#544,'design');
#540=PRODUCT_DEFINITION('SQSl1prod1','SQSl1prod1 v1',#541,#539);
#541=PRODUCT_DEFINITION_FORMATION('',$,#546);
#542=PRODUCT_RELATED_PRODUCT_CATEGORY('SQSl1prod1 v1','SQSl1prod1 v1',(#546));
#543=APPLICATION_PROTOCOL_DEFINITION('international standard',
'automotive_design',2009,#544);
#544=APPLICATION_CONTEXT(
'Core Data for Automotive Mechanical Design Process');
#545=PRODUCT_CONTEXT('part definition',#544,'mechanical');
#546=PRODUCT('SQSl1prod1','SQSl1prod1 v1',$,(#545));
#547=PRESENTATION_STYLE_ASSIGNMENT((#548));
#548=SURFACE_STYLE_USAGE(.BOTH.,#549);
#549=SURFACE_SIDE_STYLE('',(#550));
#550=SURFACE_STYLE_FILL_AREA(#551);
#551=FILL_AREA_STYLE('Acier - Satin\X\E9',(#552));
#552=FILL_AREA_STYLE_COLOUR('Acier - Satin\X\E9',#553);
#553=COLOUR_RGB('Acier - Satin\X\E9',0.627450980392157,0.627450980392157,
0.627450980392157);
ENDSEC;
END-ISO-10303-21;
