ISO-10303-21;
HEADER;
/* Generated by software containing ST-Developer
 * from STEP Tools, Inc. (www.steptools.com) 
 */

FILE_DESCRIPTION(
/* description */ (''),
/* implementation_level */ '2;1');

FILE_NAME(
/* name */ 'C:/Users/pcaumont/Downloads/attache lampe v1.step',
/* time_stamp */ '2021-05-04T10:41:08+02:00',
/* author */ (''),
/* organization */ (''),
/* preprocessor_version */ 'ST-DEVELOPER v18.1',
/* originating_system */ 'Autodesk Translation Framework v10.6.0.1341',

/* authorisation */ '');

FILE_SCHEMA (('AUTOMOTIVE_DESIGN { 1 0 10303 214 3 1 1 }'));
ENDSEC;

DATA;
#10=MECHANICAL_DESIGN_GEOMETRIC_PRESENTATION_REPRESENTATION('',(#13),#224);
#11=SHAPE_REPRESENTATION_RELATIONSHIP('SRR','None',#231,#12);
#12=ADVANCED_BREP_SHAPE_REPRESENTATION('',(#14),#223);
#13=STYLED_ITEM('',(#241),#14);
#14=MANIFOLD_SOLID_BREP('Corps1',#121);
#15=CONICAL_SURFACE('',#145,4.7625,0.5235987755983);
#16=CYLINDRICAL_SURFACE('',#142,1.25);
#17=CYLINDRICAL_SURFACE('',#148,3.9);
#18=FACE_BOUND('',#37,.T.);
#19=CIRCLE('',#137,3.9);
#20=CIRCLE('',#138,3.9);
#21=CIRCLE('',#140,3.9);
#22=CIRCLE('',#141,1.25);
#23=CIRCLE('',#143,1.25);
#24=CIRCLE('',#146,3.9);
#25=CIRCLE('',#147,5.625);
#26=FACE_OUTER_BOUND('',#34,.T.);
#27=FACE_OUTER_BOUND('',#35,.T.);
#28=FACE_OUTER_BOUND('',#36,.T.);
#29=FACE_OUTER_BOUND('',#38,.T.);
#30=FACE_OUTER_BOUND('',#39,.T.);
#31=FACE_OUTER_BOUND('',#40,.T.);
#32=FACE_OUTER_BOUND('',#41,.T.);
#33=FACE_OUTER_BOUND('',#42,.T.);
#34=EDGE_LOOP('',(#80,#81,#82,#83));
#35=EDGE_LOOP('',(#84,#85,#86));
#36=EDGE_LOOP('',(#87,#88));
#37=EDGE_LOOP('',(#89));
#38=EDGE_LOOP('',(#90,#91,#92,#93));
#39=EDGE_LOOP('',(#94));
#40=EDGE_LOOP('',(#95,#96,#97,#98));
#41=EDGE_LOOP('',(#99,#100,#101,#102,#103,#104,#105,#106));
#42=EDGE_LOOP('',(#107));
#43=LINE('',#193,#50);
#44=LINE('',#195,#51);
#45=LINE('',#197,#52);
#46=LINE('',#198,#53);
#47=LINE('',#209,#54);
#48=LINE('',#216,#55);
#49=LINE('',#219,#56);
#50=VECTOR('',#154,10.);
#51=VECTOR('',#155,10.);
#52=VECTOR('',#156,10.);
#53=VECTOR('',#157,10.);
#54=VECTOR('',#172,1.25);
#55=VECTOR('',#181,4.7625);
#56=VECTOR('',#186,3.9);
#57=VERTEX_POINT('',#191);
#58=VERTEX_POINT('',#192);
#59=VERTEX_POINT('',#194);
#60=VERTEX_POINT('',#196);
#61=VERTEX_POINT('',#200);
#62=VERTEX_POINT('',#205);
#63=VERTEX_POINT('',#208);
#64=VERTEX_POINT('',#213);
#65=VERTEX_POINT('',#215);
#66=EDGE_CURVE('',#57,#58,#43,.T.);
#67=EDGE_CURVE('',#59,#57,#44,.T.);
#68=EDGE_CURVE('',#59,#60,#45,.T.);
#69=EDGE_CURVE('',#58,#60,#46,.T.);
#70=EDGE_CURVE('',#60,#61,#19,.T.);
#71=EDGE_CURVE('',#61,#59,#20,.T.);
#72=EDGE_CURVE('',#58,#57,#21,.T.);
#73=EDGE_CURVE('',#62,#62,#22,.T.);
#74=EDGE_CURVE('',#62,#63,#47,.T.);
#75=EDGE_CURVE('',#63,#63,#23,.T.);
#76=EDGE_CURVE('',#64,#64,#24,.T.);
#77=EDGE_CURVE('',#64,#65,#48,.T.);
#78=EDGE_CURVE('',#65,#65,#25,.T.);
#79=EDGE_CURVE('',#61,#64,#49,.T.);
#80=ORIENTED_EDGE('',*,*,#66,.F.);
#81=ORIENTED_EDGE('',*,*,#67,.F.);
#82=ORIENTED_EDGE('',*,*,#68,.T.);
#83=ORIENTED_EDGE('',*,*,#69,.F.);
#84=ORIENTED_EDGE('',*,*,#70,.F.);
#85=ORIENTED_EDGE('',*,*,#68,.F.);
#86=ORIENTED_EDGE('',*,*,#71,.F.);
#87=ORIENTED_EDGE('',*,*,#66,.T.);
#88=ORIENTED_EDGE('',*,*,#72,.T.);
#89=ORIENTED_EDGE('',*,*,#73,.T.);
#90=ORIENTED_EDGE('',*,*,#73,.F.);
#91=ORIENTED_EDGE('',*,*,#74,.T.);
#92=ORIENTED_EDGE('',*,*,#75,.T.);
#93=ORIENTED_EDGE('',*,*,#74,.F.);
#94=ORIENTED_EDGE('',*,*,#75,.F.);
#95=ORIENTED_EDGE('',*,*,#76,.F.);
#96=ORIENTED_EDGE('',*,*,#77,.T.);
#97=ORIENTED_EDGE('',*,*,#78,.T.);
#98=ORIENTED_EDGE('',*,*,#77,.F.);
#99=ORIENTED_EDGE('',*,*,#67,.T.);
#100=ORIENTED_EDGE('',*,*,#72,.F.);
#101=ORIENTED_EDGE('',*,*,#69,.T.);
#102=ORIENTED_EDGE('',*,*,#70,.T.);
#103=ORIENTED_EDGE('',*,*,#79,.T.);
#104=ORIENTED_EDGE('',*,*,#76,.T.);
#105=ORIENTED_EDGE('',*,*,#79,.F.);
#106=ORIENTED_EDGE('',*,*,#71,.T.);
#107=ORIENTED_EDGE('',*,*,#78,.F.);
#108=PLANE('',#135);
#109=PLANE('',#136);
#110=PLANE('',#139);
#111=PLANE('',#144);
#112=PLANE('',#149);
#113=ADVANCED_FACE('',(#26),#108,.F.);
#114=ADVANCED_FACE('',(#27),#109,.T.);
#115=ADVANCED_FACE('',(#28,#18),#110,.T.);
#116=ADVANCED_FACE('',(#29),#16,.F.);
#117=ADVANCED_FACE('',(#30),#111,.T.);
#118=ADVANCED_FACE('',(#31),#15,.T.);
#119=ADVANCED_FACE('',(#32),#17,.T.);
#120=ADVANCED_FACE('',(#33),#112,.T.);
#121=CLOSED_SHELL('',(#113,#114,#115,#116,#117,#118,#119,#120));
#122=DERIVED_UNIT_ELEMENT(#124,1.);
#123=DERIVED_UNIT_ELEMENT(#226,-3.);
#124=(
MASS_UNIT()
NAMED_UNIT(*)
SI_UNIT(.KILO.,.GRAM.)
);
#125=DERIVED_UNIT((#122,#123));
#126=MEASURE_REPRESENTATION_ITEM('density measure',
POSITIVE_RATIO_MEASURE(7850.),#125);
#127=PROPERTY_DEFINITION_REPRESENTATION(#132,#129);
#128=PROPERTY_DEFINITION_REPRESENTATION(#133,#130);
#129=REPRESENTATION('material name',(#131),#223);
#130=REPRESENTATION('density',(#126),#223);
#131=DESCRIPTIVE_REPRESENTATION_ITEM('Acier','Acier');
#132=PROPERTY_DEFINITION('material property','material name',#233);
#133=PROPERTY_DEFINITION('material property','density of part',#233);
#134=AXIS2_PLACEMENT_3D('placement',#189,#150,#151);
#135=AXIS2_PLACEMENT_3D('',#190,#152,#153);
#136=AXIS2_PLACEMENT_3D('',#199,#158,#159);
#137=AXIS2_PLACEMENT_3D('',#201,#160,#161);
#138=AXIS2_PLACEMENT_3D('',#202,#162,#163);
#139=AXIS2_PLACEMENT_3D('',#203,#164,#165);
#140=AXIS2_PLACEMENT_3D('',#204,#166,#167);
#141=AXIS2_PLACEMENT_3D('',#206,#168,#169);
#142=AXIS2_PLACEMENT_3D('',#207,#170,#171);
#143=AXIS2_PLACEMENT_3D('',#210,#173,#174);
#144=AXIS2_PLACEMENT_3D('',#211,#175,#176);
#145=AXIS2_PLACEMENT_3D('',#212,#177,#178);
#146=AXIS2_PLACEMENT_3D('',#214,#179,#180);
#147=AXIS2_PLACEMENT_3D('',#217,#182,#183);
#148=AXIS2_PLACEMENT_3D('',#218,#184,#185);
#149=AXIS2_PLACEMENT_3D('',#220,#187,#188);
#150=DIRECTION('axis',(0.,0.,1.));
#151=DIRECTION('refdir',(1.,0.,0.));
#152=DIRECTION('center_axis',(0.,1.,0.));
#153=DIRECTION('ref_axis',(-1.,0.,0.));
#154=DIRECTION('',(-1.,0.,0.));
#155=DIRECTION('',(0.,0.,-1.));
#156=DIRECTION('',(-1.,0.,0.));
#157=DIRECTION('',(0.,0.,1.));
#158=DIRECTION('center_axis',(0.,0.,-1.));
#159=DIRECTION('ref_axis',(1.,0.,0.));
#160=DIRECTION('center_axis',(0.,0.,1.));
#161=DIRECTION('ref_axis',(0.,1.,0.));
#162=DIRECTION('center_axis',(0.,0.,1.));
#163=DIRECTION('ref_axis',(0.,1.,0.));
#164=DIRECTION('center_axis',(0.,0.,-1.));
#165=DIRECTION('ref_axis',(-1.,0.,0.));
#166=DIRECTION('center_axis',(0.,0.,-1.));
#167=DIRECTION('ref_axis',(1.,0.,0.));
#168=DIRECTION('center_axis',(0.,0.,1.));
#169=DIRECTION('ref_axis',(1.,0.,0.));
#170=DIRECTION('center_axis',(0.,0.,1.));
#171=DIRECTION('ref_axis',(1.,0.,0.));
#172=DIRECTION('',(0.,0.,1.));
#173=DIRECTION('center_axis',(0.,0.,1.));
#174=DIRECTION('ref_axis',(1.,0.,0.));
#175=DIRECTION('center_axis',(0.,0.,-1.));
#176=DIRECTION('ref_axis',(1.,0.,0.));
#177=DIRECTION('center_axis',(0.,0.,1.));
#178=DIRECTION('ref_axis',(0.,1.,0.));
#179=DIRECTION('center_axis',(0.,0.,-1.));
#180=DIRECTION('ref_axis',(1.,0.,0.));
#181=DIRECTION('',(-6.12323399573678E-17,-0.500000000000001,0.866025403784438));
#182=DIRECTION('center_axis',(0.,0.,-1.));
#183=DIRECTION('ref_axis',(1.,0.,0.));
#184=DIRECTION('center_axis',(0.,0.,-1.));
#185=DIRECTION('ref_axis',(0.,1.,0.));
#186=DIRECTION('',(0.,0.,1.));
#187=DIRECTION('center_axis',(0.,0.,1.));
#188=DIRECTION('ref_axis',(1.,0.,0.));
#189=CARTESIAN_POINT('',(0.,0.,0.));
#190=CARTESIAN_POINT('Origin',(2.49198723960043,-2.99999993294477,0.));
#191=CARTESIAN_POINT('',(2.49198723960043,-2.99999993294477,0.));
#192=CARTESIAN_POINT('',(-2.49198723960043,-2.99999993294477,0.));
#193=CARTESIAN_POINT('',(1.24599361980021,-2.99999993294477,0.));
#194=CARTESIAN_POINT('',(2.49198723960043,-2.99999993294477,4.1));
#195=CARTESIAN_POINT('',(2.49198723960042,-2.99999993294477,6.25610617847185));
#196=CARTESIAN_POINT('',(-2.49198723960043,-2.99999993294477,4.1));
#197=CARTESIAN_POINT('',(-3.4999999217689,-2.99999993294477,4.1));
#198=CARTESIAN_POINT('',(-2.49198723960042,-2.99999993294477,6.25610617847185));
#199=CARTESIAN_POINT('Origin',(2.77555756156289E-16,-3.44999996647239,4.1));
#200=CARTESIAN_POINT('',(-4.77612251667468E-16,-3.9,4.1));
#201=CARTESIAN_POINT('Origin',(0.,0.,4.1));
#202=CARTESIAN_POINT('Origin',(0.,0.,4.1));
#203=CARTESIAN_POINT('Origin',(0.,0.,0.));
#204=CARTESIAN_POINT('Origin',(0.,0.,0.));
#205=CARTESIAN_POINT('',(-1.25,1.53080849893419E-16,0.));
#206=CARTESIAN_POINT('Origin',(0.,0.,0.));
#207=CARTESIAN_POINT('Origin',(0.,0.,0.));
#208=CARTESIAN_POINT('',(-1.25,1.53080849893419E-16,11.5));
#209=CARTESIAN_POINT('',(-1.25,-1.53080849893419E-16,0.));
#210=CARTESIAN_POINT('Origin',(0.,0.,11.5));
#211=CARTESIAN_POINT('Origin',(0.,0.,11.5));
#212=CARTESIAN_POINT('Origin',(0.,0.,14.0061061784718));
#213=CARTESIAN_POINT('',(-4.77612251667468E-16,-3.9,12.5122123569437));
#214=CARTESIAN_POINT('Origin',(0.,0.,12.5122123569437));
#215=CARTESIAN_POINT('',(-6.88863824520386E-16,-5.625,15.5));
#216=CARTESIAN_POINT('',(-5.83238038093927E-16,-4.7625,14.0061061784718));
#217=CARTESIAN_POINT('Origin',(0.,0.,15.5));
#218=CARTESIAN_POINT('Origin',(0.,0.,6.25610617847185));
#219=CARTESIAN_POINT('',(-4.77612251667468E-16,-3.9,6.25610617847185));
#220=CARTESIAN_POINT('Origin',(0.,5.625,15.5));
#221=UNCERTAINTY_MEASURE_WITH_UNIT(LENGTH_MEASURE(0.01),#225,
'DISTANCE_ACCURACY_VALUE',
'Maximum model space distance between geometric entities at asserted c
onnectivities');
#222=UNCERTAINTY_MEASURE_WITH_UNIT(LENGTH_MEASURE(0.01),#225,
'DISTANCE_ACCURACY_VALUE',
'Maximum model space distance between geometric entities at asserted c
onnectivities');
#223=(
GEOMETRIC_REPRESENTATION_CONTEXT(3)
GLOBAL_UNCERTAINTY_ASSIGNED_CONTEXT((#221))
GLOBAL_UNIT_ASSIGNED_CONTEXT((#225,#227,#228))
REPRESENTATION_CONTEXT('','3D')
);
#224=(
GEOMETRIC_REPRESENTATION_CONTEXT(3)
GLOBAL_UNCERTAINTY_ASSIGNED_CONTEXT((#222))
GLOBAL_UNIT_ASSIGNED_CONTEXT((#225,#227,#228))
REPRESENTATION_CONTEXT('','3D')
);
#225=(
LENGTH_UNIT()
NAMED_UNIT(*)
SI_UNIT(.MILLI.,.METRE.)
);
#226=(
LENGTH_UNIT()
NAMED_UNIT(*)
SI_UNIT($,.METRE.)
);
#227=(
NAMED_UNIT(*)
PLANE_ANGLE_UNIT()
SI_UNIT($,.RADIAN.)
);
#228=(
NAMED_UNIT(*)
SI_UNIT($,.STERADIAN.)
SOLID_ANGLE_UNIT()
);
#229=SHAPE_DEFINITION_REPRESENTATION(#230,#231);
#230=PRODUCT_DEFINITION_SHAPE('',$,#233);
#231=SHAPE_REPRESENTATION('',(#134),#223);
#232=PRODUCT_DEFINITION_CONTEXT('part definition',#237,'design');
#233=PRODUCT_DEFINITION('attache lampe','attache lampe v1',#234,#232);
#234=PRODUCT_DEFINITION_FORMATION('',$,#239);
#235=PRODUCT_RELATED_PRODUCT_CATEGORY('attache lampe v1',
'attache lampe v1',(#239));
#236=APPLICATION_PROTOCOL_DEFINITION('international standard',
'automotive_design',2009,#237);
#237=APPLICATION_CONTEXT(
'Core Data for Automotive Mechanical Design Process');
#238=PRODUCT_CONTEXT('part definition',#237,'mechanical');
#239=PRODUCT('attache lampe','attache lampe v1',$,(#238));
#240=PRESENTATION_STYLE_ASSIGNMENT((#242));
#241=PRESENTATION_STYLE_ASSIGNMENT((#243));
#242=SURFACE_STYLE_USAGE(.BOTH.,#244);
#243=SURFACE_STYLE_USAGE(.BOTH.,#245);
#244=SURFACE_SIDE_STYLE('',(#246));
#245=SURFACE_SIDE_STYLE('',(#247));
#246=SURFACE_STYLE_FILL_AREA(#248);
#247=SURFACE_STYLE_FILL_AREA(#249);
#248=FILL_AREA_STYLE('Acier - Satin\X\E9',(#250));
#249=FILL_AREA_STYLE('Nylon 6-6 (blanc)',(#251));
#250=FILL_AREA_STYLE_COLOUR('Acier - Satin\X\E9',#252);
#251=FILL_AREA_STYLE_COLOUR('Nylon 6-6 (blanc)',#253);
#252=COLOUR_RGB('Acier - Satin\X\E9',0.627450980392157,0.627450980392157,
0.627450980392157);
#253=COLOUR_RGB('Nylon 6-6 (blanc)',0.972549019607843,0.968627450980392,
0.929411764705882);
ENDSEC;
END-ISO-10303-21;
