ISO-10303-21;
HEADER;
FILE_DESCRIPTION(('CATIA V5 STEP Exchange'),'2;1');

FILE_NAME('C:\\Users\\Rivet\\Documents\\PERSO\\_MAMAN\\SiegeDouche\\Modele_CATIA_02\\CATParts\\SiegeDouche_MachoireInf.stp','2021-05-12T16:43:08+00:00',('none'),('none'),'CATIA Version 5-6 Release 2017 SP5','CATIA V5 STEP AP203','none');

FILE_SCHEMA(('CONFIG_CONTROL_DESIGN'));

ENDSEC;
DATA;
#5=PRODUCT('SiegeDouche_MachoireInf','','',(#2)) ;
#1=APPLICATION_CONTEXT('configuration controlled 3D design of mechanical parts and assemblies') ;
#14=PRODUCT_DEFINITION('',' ',#6,#3) ;
#16=SECURITY_CLASSIFICATION(' ',' ',#15) ;
#15=SECURITY_CLASSIFICATION_LEVEL('unclassified') ;
#46=CARTESIAN_POINT(' ',(0.,0.,0.)) ;
#51=CARTESIAN_POINT('Axis2P3D Location',(67.,67.,10.)) ;
#56=CARTESIAN_POINT('Line Origine',(58.75,67.,5.)) ;
#60=CARTESIAN_POINT('Vertex',(58.75,67.,0.)) ;
#62=CARTESIAN_POINT('Vertex',(58.75,67.,10.)) ;
#65=CARTESIAN_POINT('Axis2P3D Location',(67.,67.,0.)) ;
#69=CARTESIAN_POINT('Vertex',(75.25,67.,0.)) ;
#72=CARTESIAN_POINT('Line Origine',(75.25,67.,5.)) ;
#76=CARTESIAN_POINT('Vertex',(75.25,67.,10.)) ;
#79=CARTESIAN_POINT('Axis2P3D Location',(67.,67.,10.)) ;
#91=CARTESIAN_POINT('Axis2P3D Location',(0.,0.,10.)) ;
#96=CARTESIAN_POINT('Line Origine',(-80.,0.,10.)) ;
#100=CARTESIAN_POINT('Vertex',(-80.,80.,10.)) ;
#102=CARTESIAN_POINT('Vertex',(-80.,-80.,10.)) ;
#105=CARTESIAN_POINT('Line Origine',(0.,-80.,10.)) ;
#109=CARTESIAN_POINT('Vertex',(80.,-80.,10.)) ;
#112=CARTESIAN_POINT('Line Origine',(80.,0.,10.)) ;
#116=CARTESIAN_POINT('Vertex',(80.,80.,10.)) ;
#119=CARTESIAN_POINT('Line Origine',(0.,80.,10.)) ;
#130=CARTESIAN_POINT('Axis2P3D Location',(67.,67.,10.)) ;
#139=CARTESIAN_POINT('Axis2P3D Location',(7.1054273576E-015,3.5527136788E-015,10.)) ;
#143=CARTESIAN_POINT('Vertex',(-8.25,2.5423800695E-015,10.)) ;
#145=CARTESIAN_POINT('Vertex',(8.25,3.5527136788E-015,10.)) ;
#148=CARTESIAN_POINT('Axis2P3D Location',(7.1054273576E-015,3.5527136788E-015,10.)) ;
#157=CARTESIAN_POINT('Axis2P3D Location',(67.,-67.,10.)) ;
#161=CARTESIAN_POINT('Vertex',(67.,-75.25,10.)) ;
#163=CARTESIAN_POINT('Vertex',(67.,-58.75,10.)) ;
#166=CARTESIAN_POINT('Axis2P3D Location',(67.,-67.,10.)) ;
#175=CARTESIAN_POINT('Axis2P3D Location',(-67.,-67.,10.)) ;
#179=CARTESIAN_POINT('Vertex',(-75.25,-67.,10.)) ;
#181=CARTESIAN_POINT('Vertex',(-58.75,-67.,10.)) ;
#184=CARTESIAN_POINT('Axis2P3D Location',(-67.,-67.,10.)) ;
#193=CARTESIAN_POINT('Axis2P3D Location',(-67.,67.,10.)) ;
#197=CARTESIAN_POINT('Vertex',(-67.,75.25,10.)) ;
#199=CARTESIAN_POINT('Vertex',(-67.,58.75,10.)) ;
#202=CARTESIAN_POINT('Axis2P3D Location',(-67.,67.,10.)) ;
#212=CARTESIAN_POINT('Axis2P3D Location',(67.,67.,0.)) ;
#224=CARTESIAN_POINT('Axis2P3D Location',(-80.,80.,0.)) ;
#229=CARTESIAN_POINT('Line Origine',(-80.,80.,5.)) ;
#233=CARTESIAN_POINT('Vertex',(-80.,80.,0.)) ;
#236=CARTESIAN_POINT('Line Origine',(-80.,0.,0.)) ;
#240=CARTESIAN_POINT('Vertex',(-80.,-80.,0.)) ;
#243=CARTESIAN_POINT('Line Origine',(-80.,-80.,5.)) ;
#255=CARTESIAN_POINT('Axis2P3D Location',(80.,-80.,0.)) ;
#260=CARTESIAN_POINT('Line Origine',(0.,-80.,0.)) ;
#264=CARTESIAN_POINT('Vertex',(80.,-80.,0.)) ;
#267=CARTESIAN_POINT('Line Origine',(80.,-80.,5.)) ;
#279=CARTESIAN_POINT('Axis2P3D Location',(80.,-80.,0.)) ;
#284=CARTESIAN_POINT('Line Origine',(80.,0.,0.)) ;
#288=CARTESIAN_POINT('Vertex',(80.,80.,0.)) ;
#291=CARTESIAN_POINT('Line Origine',(80.,80.,5.)) ;
#303=CARTESIAN_POINT('Axis2P3D Location',(-80.,80.,0.)) ;
#308=CARTESIAN_POINT('Line Origine',(0.,80.,0.)) ;
#320=CARTESIAN_POINT('Axis2P3D Location',(7.1054273576E-015,3.5527136788E-015,10.)) ;
#325=CARTESIAN_POINT('Line Origine',(-8.25,2.5423800695E-015,5.00000018999)) ;
#329=CARTESIAN_POINT('Vertex',(-8.25,2.5423800695E-015,0.)) ;
#332=CARTESIAN_POINT('Axis2P3D Location',(7.1054273576E-015,3.5527136788E-015,0.)) ;
#336=CARTESIAN_POINT('Vertex',(8.25,3.5527136788E-015,0.)) ;
#339=CARTESIAN_POINT('Line Origine',(8.25,5.57338089739E-015,5.00000018999)) ;
#351=CARTESIAN_POINT('Axis2P3D Location',(7.1054273576E-015,3.5527136788E-015,0.)) ;
#363=CARTESIAN_POINT('Axis2P3D Location',(0.,0.,0.)) ;
#382=CARTESIAN_POINT('Axis2P3D Location',(67.,-67.,0.)) ;
#386=CARTESIAN_POINT('Vertex',(67.,-58.75,0.)) ;
#388=CARTESIAN_POINT('Vertex',(67.,-75.25,0.)) ;
#391=CARTESIAN_POINT('Axis2P3D Location',(67.,-67.,0.)) ;
#400=CARTESIAN_POINT('Axis2P3D Location',(-67.,-67.,0.)) ;
#404=CARTESIAN_POINT('Vertex',(-58.75,-67.,0.)) ;
#406=CARTESIAN_POINT('Vertex',(-75.25,-67.,0.)) ;
#409=CARTESIAN_POINT('Axis2P3D Location',(-67.,-67.,0.)) ;
#418=CARTESIAN_POINT('Axis2P3D Location',(-67.,67.,0.)) ;
#422=CARTESIAN_POINT('Vertex',(-67.,58.75,0.)) ;
#424=CARTESIAN_POINT('Vertex',(-67.,75.25,0.)) ;
#427=CARTESIAN_POINT('Axis2P3D Location',(-67.,67.,0.)) ;
#437=CARTESIAN_POINT('Axis2P3D Location',(67.,-67.,10.)) ;
#442=CARTESIAN_POINT('Line Origine',(67.,-58.75,5.)) ;
#447=CARTESIAN_POINT('Line Origine',(67.,-75.25,5.)) ;
#466=CARTESIAN_POINT('Axis2P3D Location',(-67.,-67.,10.)) ;
#471=CARTESIAN_POINT('Line Origine',(-58.75,-67.,5.)) ;
#476=CARTESIAN_POINT('Line Origine',(-75.25,-67.,5.)) ;
#495=CARTESIAN_POINT('Axis2P3D Location',(-67.,67.,10.)) ;
#500=CARTESIAN_POINT('Line Origine',(-67.,58.75,5.)) ;
#505=CARTESIAN_POINT('Line Origine',(-67.,75.25,5.)) ;
#52=DIRECTION('Axis2P3D Direction',(0.,-0.,-1.)) ;
#53=DIRECTION('Axis2P3D XDirection',(1.,0.,0.)) ;
#57=DIRECTION('Vector Direction',(0.,0.,-1.)) ;
#66=DIRECTION('Axis2P3D Direction',(0.,-0.,-1.)) ;
#73=DIRECTION('Vector Direction',(0.,0.,-1.)) ;
#80=DIRECTION('Axis2P3D Direction',(0.,-0.,-1.)) ;
#92=DIRECTION('Axis2P3D Direction',(0.,0.,1.)) ;
#93=DIRECTION('Axis2P3D XDirection',(1.,0.,0.)) ;
#97=DIRECTION('Vector Direction',(0.,-1.,0.)) ;
#106=DIRECTION('Vector Direction',(-1.,0.,0.)) ;
#113=DIRECTION('Vector Direction',(0.,1.,0.)) ;
#120=DIRECTION('Vector Direction',(1.,0.,0.)) ;
#131=DIRECTION('Axis2P3D Direction',(0.,0.,1.)) ;
#140=DIRECTION('Axis2P3D Direction',(0.,0.,1.)) ;
#149=DIRECTION('Axis2P3D Direction',(0.,0.,1.)) ;
#158=DIRECTION('Axis2P3D Direction',(0.,0.,1.)) ;
#167=DIRECTION('Axis2P3D Direction',(0.,0.,1.)) ;
#176=DIRECTION('Axis2P3D Direction',(0.,0.,1.)) ;
#185=DIRECTION('Axis2P3D Direction',(0.,0.,1.)) ;
#194=DIRECTION('Axis2P3D Direction',(0.,0.,1.)) ;
#203=DIRECTION('Axis2P3D Direction',(0.,0.,1.)) ;
#213=DIRECTION('Axis2P3D Direction',(0.,-0.,-1.)) ;
#225=DIRECTION('Axis2P3D Direction',(-1.,0.,0.)) ;
#226=DIRECTION('Axis2P3D XDirection',(0.,-1.,0.)) ;
#230=DIRECTION('Vector Direction',(0.,0.,1.)) ;
#237=DIRECTION('Vector Direction',(0.,-1.,0.)) ;
#244=DIRECTION('Vector Direction',(0.,0.,1.)) ;
#256=DIRECTION('Axis2P3D Direction',(0.,1.,-0.)) ;
#257=DIRECTION('Axis2P3D XDirection',(-1.,0.,0.)) ;
#261=DIRECTION('Vector Direction',(-1.,0.,0.)) ;
#268=DIRECTION('Vector Direction',(0.,0.,1.)) ;
#280=DIRECTION('Axis2P3D Direction',(1.,0.,0.)) ;
#281=DIRECTION('Axis2P3D XDirection',(0.,1.,0.)) ;
#285=DIRECTION('Vector Direction',(0.,1.,0.)) ;
#292=DIRECTION('Vector Direction',(0.,0.,1.)) ;
#304=DIRECTION('Axis2P3D Direction',(0.,-1.,0.)) ;
#305=DIRECTION('Axis2P3D XDirection',(1.,0.,0.)) ;
#309=DIRECTION('Vector Direction',(1.,0.,0.)) ;
#321=DIRECTION('Axis2P3D Direction',(0.,-0.,-1.)) ;
#322=DIRECTION('Axis2P3D XDirection',(1.,0.,0.)) ;
#326=DIRECTION('Vector Direction',(0.,0.,-1.)) ;
#333=DIRECTION('Axis2P3D Direction',(0.,-0.,-1.)) ;
#340=DIRECTION('Vector Direction',(0.,0.,-1.)) ;
#352=DIRECTION('Axis2P3D Direction',(0.,-0.,-1.)) ;
#364=DIRECTION('Axis2P3D Direction',(0.,0.,1.)) ;
#365=DIRECTION('Axis2P3D XDirection',(1.,0.,0.)) ;
#383=DIRECTION('Axis2P3D Direction',(0.,0.,1.)) ;
#392=DIRECTION('Axis2P3D Direction',(0.,0.,1.)) ;
#401=DIRECTION('Axis2P3D Direction',(0.,0.,1.)) ;
#410=DIRECTION('Axis2P3D Direction',(0.,0.,1.)) ;
#419=DIRECTION('Axis2P3D Direction',(0.,0.,1.)) ;
#428=DIRECTION('Axis2P3D Direction',(0.,0.,1.)) ;
#438=DIRECTION('Axis2P3D Direction',(0.,-0.,-1.)) ;
#439=DIRECTION('Axis2P3D XDirection',(6.12323399574E-017,-1.,0.)) ;
#443=DIRECTION('Vector Direction',(0.,0.,-1.)) ;
#448=DIRECTION('Vector Direction',(0.,0.,-1.)) ;
#467=DIRECTION('Axis2P3D Direction',(-0.,0.,-1.)) ;
#468=DIRECTION('Axis2P3D XDirection',(-1.,-1.22464679915E-016,0.)) ;
#472=DIRECTION('Vector Direction',(0.,0.,-1.)) ;
#477=DIRECTION('Vector Direction',(0.,0.,-1.)) ;
#496=DIRECTION('Axis2P3D Direction',(0.,0.,-1.)) ;
#497=DIRECTION('Axis2P3D XDirection',(-1.83697019872E-016,1.,0.)) ;
#501=DIRECTION('Vector Direction',(0.,0.,-1.)) ;
#506=DIRECTION('Vector Direction',(0.,0.,-1.)) ;
#47=AXIS2_PLACEMENT_3D(' ',#46,$,$) ;
#54=AXIS2_PLACEMENT_3D('Cylinder Axis2P3D',#51,#52,#53) ;
#67=AXIS2_PLACEMENT_3D('Circle Axis2P3D',#65,#66,$) ;
#81=AXIS2_PLACEMENT_3D('Circle Axis2P3D',#79,#80,$) ;
#94=AXIS2_PLACEMENT_3D('Plane Axis2P3D',#91,#92,#93) ;
#132=AXIS2_PLACEMENT_3D('Circle Axis2P3D',#130,#131,$) ;
#141=AXIS2_PLACEMENT_3D('Circle Axis2P3D',#139,#140,$) ;
#150=AXIS2_PLACEMENT_3D('Circle Axis2P3D',#148,#149,$) ;
#159=AXIS2_PLACEMENT_3D('Circle Axis2P3D',#157,#158,$) ;
#168=AXIS2_PLACEMENT_3D('Circle Axis2P3D',#166,#167,$) ;
#177=AXIS2_PLACEMENT_3D('Circle Axis2P3D',#175,#176,$) ;
#186=AXIS2_PLACEMENT_3D('Circle Axis2P3D',#184,#185,$) ;
#195=AXIS2_PLACEMENT_3D('Circle Axis2P3D',#193,#194,$) ;
#204=AXIS2_PLACEMENT_3D('Circle Axis2P3D',#202,#203,$) ;
#214=AXIS2_PLACEMENT_3D('Circle Axis2P3D',#212,#213,$) ;
#227=AXIS2_PLACEMENT_3D('Plane Axis2P3D',#224,#225,#226) ;
#258=AXIS2_PLACEMENT_3D('Plane Axis2P3D',#255,#256,#257) ;
#282=AXIS2_PLACEMENT_3D('Plane Axis2P3D',#279,#280,#281) ;
#306=AXIS2_PLACEMENT_3D('Plane Axis2P3D',#303,#304,#305) ;
#323=AXIS2_PLACEMENT_3D('Cylinder Axis2P3D',#320,#321,#322) ;
#334=AXIS2_PLACEMENT_3D('Circle Axis2P3D',#332,#333,$) ;
#353=AXIS2_PLACEMENT_3D('Circle Axis2P3D',#351,#352,$) ;
#366=AXIS2_PLACEMENT_3D('Plane Axis2P3D',#363,#364,#365) ;
#384=AXIS2_PLACEMENT_3D('Circle Axis2P3D',#382,#383,$) ;
#393=AXIS2_PLACEMENT_3D('Circle Axis2P3D',#391,#392,$) ;
#402=AXIS2_PLACEMENT_3D('Circle Axis2P3D',#400,#401,$) ;
#411=AXIS2_PLACEMENT_3D('Circle Axis2P3D',#409,#410,$) ;
#420=AXIS2_PLACEMENT_3D('Circle Axis2P3D',#418,#419,$) ;
#429=AXIS2_PLACEMENT_3D('Circle Axis2P3D',#427,#428,$) ;
#440=AXIS2_PLACEMENT_3D('Cylinder Axis2P3D',#437,#438,#439) ;
#469=AXIS2_PLACEMENT_3D('Cylinder Axis2P3D',#466,#467,#468) ;
#498=AXIS2_PLACEMENT_3D('Cylinder Axis2P3D',#495,#496,#497) ;
#40=PRODUCT_DEFINITION_SHAPE(' ',' ',#14) ;
#31=APPROVAL_PERSON_ORGANIZATION(#25,#21,#19) ;
#25=PERSON_AND_ORGANIZATION(#22,#23) ;
#22=PERSON(' ',' ',' ',$,$,$) ;
#23=ORGANIZATION(' ',' ',' ') ;
#21=APPROVAL(#20,' ') ;
#20=APPROVAL_STATUS('not_yet_approved') ;
#19=APPROVAL_ROLE('APPROVER') ;
#13=DATE_AND_TIME(#11,#12) ;
#12=LOCAL_TIME(18,43,8.,#10) ;
#10=COORDINATED_UNIVERSAL_TIME_OFFSET(0,0,.AHEAD.) ;
#85=ORIENTED_EDGE('',*,*,#64,.F.) ;
#86=ORIENTED_EDGE('',*,*,#71,.F.) ;
#87=ORIENTED_EDGE('',*,*,#78,.T.) ;
#88=ORIENTED_EDGE('',*,*,#83,.T.) ;
#125=ORIENTED_EDGE('',*,*,#104,.T.) ;
#126=ORIENTED_EDGE('',*,*,#111,.T.) ;
#127=ORIENTED_EDGE('',*,*,#118,.T.) ;
#128=ORIENTED_EDGE('',*,*,#123,.T.) ;
#136=ORIENTED_EDGE('',*,*,#134,.F.) ;
#137=ORIENTED_EDGE('',*,*,#83,.F.) ;
#154=ORIENTED_EDGE('',*,*,#147,.F.) ;
#155=ORIENTED_EDGE('',*,*,#152,.F.) ;
#172=ORIENTED_EDGE('',*,*,#165,.F.) ;
#173=ORIENTED_EDGE('',*,*,#170,.F.) ;
#190=ORIENTED_EDGE('',*,*,#183,.F.) ;
#191=ORIENTED_EDGE('',*,*,#188,.F.) ;
#208=ORIENTED_EDGE('',*,*,#201,.F.) ;
#209=ORIENTED_EDGE('',*,*,#206,.F.) ;
#218=ORIENTED_EDGE('',*,*,#78,.F.) ;
#219=ORIENTED_EDGE('',*,*,#216,.F.) ;
#220=ORIENTED_EDGE('',*,*,#64,.T.) ;
#221=ORIENTED_EDGE('',*,*,#134,.T.) ;
#249=ORIENTED_EDGE('',*,*,#235,.F.) ;
#250=ORIENTED_EDGE('',*,*,#242,.T.) ;
#251=ORIENTED_EDGE('',*,*,#247,.T.) ;
#252=ORIENTED_EDGE('',*,*,#104,.F.) ;
#273=ORIENTED_EDGE('',*,*,#247,.F.) ;
#274=ORIENTED_EDGE('',*,*,#266,.T.) ;
#275=ORIENTED_EDGE('',*,*,#271,.T.) ;
#276=ORIENTED_EDGE('',*,*,#111,.F.) ;
#297=ORIENTED_EDGE('',*,*,#271,.F.) ;
#298=ORIENTED_EDGE('',*,*,#290,.T.) ;
#299=ORIENTED_EDGE('',*,*,#295,.T.) ;
#300=ORIENTED_EDGE('',*,*,#118,.F.) ;
#314=ORIENTED_EDGE('',*,*,#295,.F.) ;
#315=ORIENTED_EDGE('',*,*,#312,.T.) ;
#316=ORIENTED_EDGE('',*,*,#235,.T.) ;
#317=ORIENTED_EDGE('',*,*,#123,.F.) ;
#345=ORIENTED_EDGE('',*,*,#331,.F.) ;
#346=ORIENTED_EDGE('',*,*,#338,.F.) ;
#347=ORIENTED_EDGE('',*,*,#343,.T.) ;
#348=ORIENTED_EDGE('',*,*,#152,.T.) ;
#357=ORIENTED_EDGE('',*,*,#343,.F.) ;
#358=ORIENTED_EDGE('',*,*,#355,.F.) ;
#359=ORIENTED_EDGE('',*,*,#331,.T.) ;
#360=ORIENTED_EDGE('',*,*,#147,.T.) ;
#369=ORIENTED_EDGE('',*,*,#312,.F.) ;
#370=ORIENTED_EDGE('',*,*,#290,.F.) ;
#371=ORIENTED_EDGE('',*,*,#266,.F.) ;
#372=ORIENTED_EDGE('',*,*,#242,.F.) ;
#375=ORIENTED_EDGE('',*,*,#71,.T.) ;
#376=ORIENTED_EDGE('',*,*,#216,.T.) ;
#379=ORIENTED_EDGE('',*,*,#338,.T.) ;
#380=ORIENTED_EDGE('',*,*,#355,.T.) ;
#397=ORIENTED_EDGE('',*,*,#390,.T.) ;
#398=ORIENTED_EDGE('',*,*,#395,.T.) ;
#415=ORIENTED_EDGE('',*,*,#408,.T.) ;
#416=ORIENTED_EDGE('',*,*,#413,.T.) ;
#433=ORIENTED_EDGE('',*,*,#426,.T.) ;
#434=ORIENTED_EDGE('',*,*,#431,.T.) ;
#453=ORIENTED_EDGE('',*,*,#446,.F.) ;
#454=ORIENTED_EDGE('',*,*,#395,.F.) ;
#455=ORIENTED_EDGE('',*,*,#451,.T.) ;
#456=ORIENTED_EDGE('',*,*,#165,.T.) ;
#460=ORIENTED_EDGE('',*,*,#451,.F.) ;
#461=ORIENTED_EDGE('',*,*,#390,.F.) ;
#462=ORIENTED_EDGE('',*,*,#446,.T.) ;
#463=ORIENTED_EDGE('',*,*,#170,.T.) ;
#482=ORIENTED_EDGE('',*,*,#475,.F.) ;
#483=ORIENTED_EDGE('',*,*,#413,.F.) ;
#484=ORIENTED_EDGE('',*,*,#480,.T.) ;
#485=ORIENTED_EDGE('',*,*,#183,.T.) ;
#489=ORIENTED_EDGE('',*,*,#480,.F.) ;
#490=ORIENTED_EDGE('',*,*,#408,.F.) ;
#491=ORIENTED_EDGE('',*,*,#475,.T.) ;
#492=ORIENTED_EDGE('',*,*,#188,.T.) ;
#511=ORIENTED_EDGE('',*,*,#504,.F.) ;
#512=ORIENTED_EDGE('',*,*,#431,.F.) ;
#513=ORIENTED_EDGE('',*,*,#509,.T.) ;
#514=ORIENTED_EDGE('',*,*,#201,.T.) ;
#518=ORIENTED_EDGE('',*,*,#509,.F.) ;
#519=ORIENTED_EDGE('',*,*,#426,.F.) ;
#520=ORIENTED_EDGE('',*,*,#504,.T.) ;
#521=ORIENTED_EDGE('',*,*,#206,.T.) ;
#138=FACE_BOUND('',#135,.T.) ;
#156=FACE_BOUND('',#153,.T.) ;
#174=FACE_BOUND('',#171,.T.) ;
#192=FACE_BOUND('',#189,.T.) ;
#210=FACE_BOUND('',#207,.T.) ;
#377=FACE_BOUND('',#374,.T.) ;
#381=FACE_BOUND('',#378,.T.) ;
#399=FACE_BOUND('',#396,.T.) ;
#417=FACE_BOUND('',#414,.T.) ;
#435=FACE_BOUND('',#432,.T.) ;
#50=CLOSED_SHELL('Closed Shell',(#90,#211,#223,#254,#278,#302,#319,#350,#362,#436,#458,#465,#487,#494,#516,#523)) ;
#58=VECTOR('Line Direction',#57,1.) ;
#74=VECTOR('Line Direction',#73,1.) ;
#98=VECTOR('Line Direction',#97,1.) ;
#107=VECTOR('Line Direction',#106,1.) ;
#114=VECTOR('Line Direction',#113,1.) ;
#121=VECTOR('Line Direction',#120,1.) ;
#231=VECTOR('Line Direction',#230,1.) ;
#238=VECTOR('Line Direction',#237,1.) ;
#245=VECTOR('Line Direction',#244,1.) ;
#262=VECTOR('Line Direction',#261,1.) ;
#269=VECTOR('Line Direction',#268,1.) ;
#286=VECTOR('Line Direction',#285,1.) ;
#293=VECTOR('Line Direction',#292,1.) ;
#310=VECTOR('Line Direction',#309,1.) ;
#327=VECTOR('Line Direction',#326,1.) ;
#341=VECTOR('Line Direction',#340,1.) ;
#444=VECTOR('Line Direction',#443,1.) ;
#449=VECTOR('Line Direction',#448,1.) ;
#473=VECTOR('Line Direction',#472,1.) ;
#478=VECTOR('Line Direction',#477,1.) ;
#502=VECTOR('Line Direction',#501,1.) ;
#507=VECTOR('Line Direction',#506,1.) ;
#525=ADVANCED_BREP_SHAPE_REPRESENTATION('NONE',(#524),#45) ;
#48=SHAPE_REPRESENTATION(' ',(#47),#45) ;
#90=ADVANCED_FACE('Corps principal',(#89),#55,.F.) ;
#211=ADVANCED_FACE('Corps principal',(#129,#138,#156,#174,#192,#210),#95,.T.) ;
#223=ADVANCED_FACE('Corps principal',(#222),#55,.F.) ;
#254=ADVANCED_FACE('Corps principal',(#253),#228,.T.) ;
#278=ADVANCED_FACE('Corps principal',(#277),#259,.F.) ;
#302=ADVANCED_FACE('Corps principal',(#301),#283,.T.) ;
#319=ADVANCED_FACE('Corps principal',(#318),#307,.F.) ;
#350=ADVANCED_FACE('Corps principal',(#349),#324,.F.) ;
#362=ADVANCED_FACE('Corps principal',(#361),#324,.F.) ;
#436=ADVANCED_FACE('Corps principal',(#373,#377,#381,#399,#417,#435),#367,.F.) ;
#458=ADVANCED_FACE('Corps principal',(#457),#441,.F.) ;
#465=ADVANCED_FACE('Corps principal',(#464),#441,.F.) ;
#487=ADVANCED_FACE('Corps principal',(#486),#470,.F.) ;
#494=ADVANCED_FACE('Corps principal',(#493),#470,.F.) ;
#516=ADVANCED_FACE('Corps principal',(#515),#499,.F.) ;
#523=ADVANCED_FACE('Corps principal',(#522),#499,.F.) ;
#4=APPLICATION_PROTOCOL_DEFINITION('international standard','config_control_design',1994,#1) ;
#32=APPROVAL_DATE_TIME(#13,#21) ;
#524=MANIFOLD_SOLID_BREP('Corps principal',#50) ;
#11=CALENDAR_DATE(2021,12,5) ;
#30=CC_DESIGN_APPROVAL(#21,(#16,#6,#14)) ;
#18=CC_DESIGN_DATE_AND_TIME_ASSIGNMENT(#13,#17,(#16)) ;
#29=CC_DESIGN_DATE_AND_TIME_ASSIGNMENT(#13,#28,(#14)) ;
#17=DATE_TIME_ROLE('classification_date') ;
#28=DATE_TIME_ROLE('creation_date') ;
#27=CC_DESIGN_PERSON_AND_ORGANIZATION_ASSIGNMENT(#25,#26,(#16)) ;
#33=CC_DESIGN_PERSON_AND_ORGANIZATION_ASSIGNMENT(#25,#34,(#6)) ;
#35=CC_DESIGN_PERSON_AND_ORGANIZATION_ASSIGNMENT(#25,#36,(#6,#14)) ;
#37=CC_DESIGN_PERSON_AND_ORGANIZATION_ASSIGNMENT(#25,#38,(#5)) ;
#26=PERSON_AND_ORGANIZATION_ROLE('classification_officer') ;
#34=PERSON_AND_ORGANIZATION_ROLE('design_supplier') ;
#36=PERSON_AND_ORGANIZATION_ROLE('creator') ;
#38=PERSON_AND_ORGANIZATION_ROLE('design_owner') ;
#39=CC_DESIGN_SECURITY_CLASSIFICATION(#16,(#6)) ;
#68=CIRCLE('generated circle',#67,8.25) ;
#82=CIRCLE('generated circle',#81,8.25) ;
#133=CIRCLE('generated circle',#132,8.25) ;
#142=CIRCLE('generated circle',#141,8.25) ;
#151=CIRCLE('generated circle',#150,8.25) ;
#160=CIRCLE('generated circle',#159,8.25) ;
#169=CIRCLE('generated circle',#168,8.25) ;
#178=CIRCLE('generated circle',#177,8.25) ;
#187=CIRCLE('generated circle',#186,8.25) ;
#196=CIRCLE('generated circle',#195,8.25) ;
#205=CIRCLE('generated circle',#204,8.25) ;
#215=CIRCLE('generated circle',#214,8.25) ;
#335=CIRCLE('generated circle',#334,8.25) ;
#354=CIRCLE('generated circle',#353,8.25) ;
#385=CIRCLE('generated circle',#384,8.25) ;
#394=CIRCLE('generated circle',#393,8.25) ;
#403=CIRCLE('generated circle',#402,8.25) ;
#412=CIRCLE('generated circle',#411,8.25) ;
#421=CIRCLE('generated circle',#420,8.25) ;
#430=CIRCLE('generated circle',#429,8.25) ;
#526=SHAPE_REPRESENTATION_RELATIONSHIP(' ',' ',#48,#525) ;
#55=CYLINDRICAL_SURFACE('generated cylinder',#54,8.25) ;
#324=CYLINDRICAL_SURFACE('generated cylinder',#323,8.25) ;
#441=CYLINDRICAL_SURFACE('generated cylinder',#440,8.25) ;
#470=CYLINDRICAL_SURFACE('generated cylinder',#469,8.25) ;
#499=CYLINDRICAL_SURFACE('generated cylinder',#498,8.25) ;
#3=DESIGN_CONTEXT(' ',#1,'design') ;
#64=EDGE_CURVE('',#61,#63,#59,.F.) ;
#71=EDGE_CURVE('',#70,#61,#68,.F.) ;
#78=EDGE_CURVE('',#70,#77,#75,.F.) ;
#83=EDGE_CURVE('',#77,#63,#82,.F.) ;
#104=EDGE_CURVE('',#101,#103,#99,.T.) ;
#111=EDGE_CURVE('',#103,#110,#108,.F.) ;
#118=EDGE_CURVE('',#110,#117,#115,.T.) ;
#123=EDGE_CURVE('',#117,#101,#122,.F.) ;
#134=EDGE_CURVE('',#63,#77,#133,.T.) ;
#147=EDGE_CURVE('',#144,#146,#142,.T.) ;
#152=EDGE_CURVE('',#146,#144,#151,.T.) ;
#165=EDGE_CURVE('',#162,#164,#160,.T.) ;
#170=EDGE_CURVE('',#164,#162,#169,.T.) ;
#183=EDGE_CURVE('',#180,#182,#178,.T.) ;
#188=EDGE_CURVE('',#182,#180,#187,.T.) ;
#201=EDGE_CURVE('',#198,#200,#196,.T.) ;
#206=EDGE_CURVE('',#200,#198,#205,.T.) ;
#216=EDGE_CURVE('',#61,#70,#215,.F.) ;
#235=EDGE_CURVE('',#234,#101,#232,.T.) ;
#242=EDGE_CURVE('',#234,#241,#239,.T.) ;
#247=EDGE_CURVE('',#241,#103,#246,.T.) ;
#266=EDGE_CURVE('',#241,#265,#263,.F.) ;
#271=EDGE_CURVE('',#265,#110,#270,.T.) ;
#290=EDGE_CURVE('',#265,#289,#287,.T.) ;
#295=EDGE_CURVE('',#289,#117,#294,.T.) ;
#312=EDGE_CURVE('',#289,#234,#311,.F.) ;
#331=EDGE_CURVE('',#330,#144,#328,.F.) ;
#338=EDGE_CURVE('',#337,#330,#335,.F.) ;
#343=EDGE_CURVE('',#337,#146,#342,.F.) ;
#355=EDGE_CURVE('',#330,#337,#354,.F.) ;
#390=EDGE_CURVE('',#387,#389,#385,.T.) ;
#395=EDGE_CURVE('',#389,#387,#394,.T.) ;
#408=EDGE_CURVE('',#405,#407,#403,.T.) ;
#413=EDGE_CURVE('',#407,#405,#412,.T.) ;
#426=EDGE_CURVE('',#423,#425,#421,.T.) ;
#431=EDGE_CURVE('',#425,#423,#430,.T.) ;
#446=EDGE_CURVE('',#387,#164,#445,.F.) ;
#451=EDGE_CURVE('',#389,#162,#450,.F.) ;
#475=EDGE_CURVE('',#405,#182,#474,.F.) ;
#480=EDGE_CURVE('',#407,#180,#479,.F.) ;
#504=EDGE_CURVE('',#423,#200,#503,.F.) ;
#509=EDGE_CURVE('',#425,#198,#508,.F.) ;
#84=EDGE_LOOP('',(#85,#86,#87,#88)) ;
#124=EDGE_LOOP('',(#125,#126,#127,#128)) ;
#135=EDGE_LOOP('',(#136,#137)) ;
#153=EDGE_LOOP('',(#154,#155)) ;
#171=EDGE_LOOP('',(#172,#173)) ;
#189=EDGE_LOOP('',(#190,#191)) ;
#207=EDGE_LOOP('',(#208,#209)) ;
#217=EDGE_LOOP('',(#218,#219,#220,#221)) ;
#248=EDGE_LOOP('',(#249,#250,#251,#252)) ;
#272=EDGE_LOOP('',(#273,#274,#275,#276)) ;
#296=EDGE_LOOP('',(#297,#298,#299,#300)) ;
#313=EDGE_LOOP('',(#314,#315,#316,#317)) ;
#344=EDGE_LOOP('',(#345,#346,#347,#348)) ;
#356=EDGE_LOOP('',(#357,#358,#359,#360)) ;
#368=EDGE_LOOP('',(#369,#370,#371,#372)) ;
#374=EDGE_LOOP('',(#375,#376)) ;
#378=EDGE_LOOP('',(#379,#380)) ;
#396=EDGE_LOOP('',(#397,#398)) ;
#414=EDGE_LOOP('',(#415,#416)) ;
#432=EDGE_LOOP('',(#433,#434)) ;
#452=EDGE_LOOP('',(#453,#454,#455,#456)) ;
#459=EDGE_LOOP('',(#460,#461,#462,#463)) ;
#481=EDGE_LOOP('',(#482,#483,#484,#485)) ;
#488=EDGE_LOOP('',(#489,#490,#491,#492)) ;
#510=EDGE_LOOP('',(#511,#512,#513,#514)) ;
#517=EDGE_LOOP('',(#518,#519,#520,#521)) ;
#89=FACE_OUTER_BOUND('',#84,.T.) ;
#129=FACE_OUTER_BOUND('',#124,.T.) ;
#222=FACE_OUTER_BOUND('',#217,.T.) ;
#253=FACE_OUTER_BOUND('',#248,.T.) ;
#277=FACE_OUTER_BOUND('',#272,.T.) ;
#301=FACE_OUTER_BOUND('',#296,.T.) ;
#318=FACE_OUTER_BOUND('',#313,.T.) ;
#349=FACE_OUTER_BOUND('',#344,.T.) ;
#361=FACE_OUTER_BOUND('',#356,.T.) ;
#373=FACE_OUTER_BOUND('',#368,.T.) ;
#457=FACE_OUTER_BOUND('',#452,.T.) ;
#464=FACE_OUTER_BOUND('',#459,.T.) ;
#486=FACE_OUTER_BOUND('',#481,.T.) ;
#493=FACE_OUTER_BOUND('',#488,.T.) ;
#515=FACE_OUTER_BOUND('',#510,.T.) ;
#522=FACE_OUTER_BOUND('',#517,.T.) ;
#44=UNCERTAINTY_MEASURE_WITH_UNIT(LENGTH_MEASURE(0.005),#41,'distance_accuracy_value','CONFUSED CURVE UNCERTAINTY') ;
#59=LINE('Line',#56,#58) ;
#75=LINE('Line',#72,#74) ;
#99=LINE('Line',#96,#98) ;
#108=LINE('Line',#105,#107) ;
#115=LINE('Line',#112,#114) ;
#122=LINE('Line',#119,#121) ;
#232=LINE('Line',#229,#231) ;
#239=LINE('Line',#236,#238) ;
#246=LINE('Line',#243,#245) ;
#263=LINE('Line',#260,#262) ;
#270=LINE('Line',#267,#269) ;
#287=LINE('Line',#284,#286) ;
#294=LINE('Line',#291,#293) ;
#311=LINE('Line',#308,#310) ;
#328=LINE('Line',#325,#327) ;
#342=LINE('Line',#339,#341) ;
#445=LINE('Line',#442,#444) ;
#450=LINE('Line',#447,#449) ;
#474=LINE('Line',#471,#473) ;
#479=LINE('Line',#476,#478) ;
#503=LINE('Line',#500,#502) ;
#508=LINE('Line',#505,#507) ;
#2=MECHANICAL_CONTEXT(' ',#1,'mechanical') ;
#24=PERSONAL_ADDRESS(' ',' ',' ',' ',' ',' ',' ',' ',' ',' ',' ',' ',(#22),' ') ;
#95=PLANE('',#94) ;
#228=PLANE('',#227) ;
#259=PLANE('',#258) ;
#283=PLANE('',#282) ;
#307=PLANE('',#306) ;
#367=PLANE('',#366) ;
#7=PRODUCT_CATEGORY('part',$) ;
#9=PRODUCT_CATEGORY_RELATIONSHIP(' ',' ',#7,#8) ;
#6=PRODUCT_DEFINITION_FORMATION_WITH_SPECIFIED_SOURCE('',' ',#5,.NOT_KNOWN.) ;
#8=PRODUCT_RELATED_PRODUCT_CATEGORY('detail',$,(#5)) ;
#49=SHAPE_DEFINITION_REPRESENTATION(#40,#48) ;
#61=VERTEX_POINT('',#60) ;
#63=VERTEX_POINT('',#62) ;
#70=VERTEX_POINT('',#69) ;
#77=VERTEX_POINT('',#76) ;
#101=VERTEX_POINT('',#100) ;
#103=VERTEX_POINT('',#102) ;
#110=VERTEX_POINT('',#109) ;
#117=VERTEX_POINT('',#116) ;
#144=VERTEX_POINT('',#143) ;
#146=VERTEX_POINT('',#145) ;
#162=VERTEX_POINT('',#161) ;
#164=VERTEX_POINT('',#163) ;
#180=VERTEX_POINT('',#179) ;
#182=VERTEX_POINT('',#181) ;
#198=VERTEX_POINT('',#197) ;
#200=VERTEX_POINT('',#199) ;
#234=VERTEX_POINT('',#233) ;
#241=VERTEX_POINT('',#240) ;
#265=VERTEX_POINT('',#264) ;
#289=VERTEX_POINT('',#288) ;
#330=VERTEX_POINT('',#329) ;
#337=VERTEX_POINT('',#336) ;
#387=VERTEX_POINT('',#386) ;
#389=VERTEX_POINT('',#388) ;
#405=VERTEX_POINT('',#404) ;
#407=VERTEX_POINT('',#406) ;
#423=VERTEX_POINT('',#422) ;
#425=VERTEX_POINT('',#424) ;
#41=(LENGTH_UNIT()NAMED_UNIT(*)SI_UNIT(.MILLI.,.METRE.)) ;
#42=(NAMED_UNIT(*)PLANE_ANGLE_UNIT()SI_UNIT($,.RADIAN.)) ;
#43=(NAMED_UNIT(*)SI_UNIT($,.STERADIAN.)SOLID_ANGLE_UNIT()) ;
#45=(GEOMETRIC_REPRESENTATION_CONTEXT(3)GLOBAL_UNCERTAINTY_ASSIGNED_CONTEXT((#44))GLOBAL_UNIT_ASSIGNED_CONTEXT((#41,#42,#43))REPRESENTATION_CONTEXT(' ',' ')) ;
ENDSEC;
END-ISO-10303-21;
