                                                                        S      1
,,,5HFS G3,33HAutoCAD 2019 - Français (French),62HAutodesk Translation G      1
Framework DWG producer (atf_dwg_producer),32,38,7,99,15,,1.,1,4HINCH,1, G      2
0.08,15H20210522.125624,0.000393700787401575,10000.,,7Hunknown,11,0,15H2G      3
0210522.064125;                                                         G      4
     186       1                       0                        00000000D      1
     186             -61       1       0                               0D      2
     514       2                                                00010000D      3
     514                       1       1                               0D      4
     510       3                                                00010000D      5
     510             -61       1       1                               0D      6
     510       4                                                00010000D      7
     510             -61       1       1                               0D      8
     510       5                                                00010000D      9
     510             -61       1       1                               0D     10
     510       6                                                00010000D     11
     510             -61       1       1                               0D     12
     510       7                                                00010000D     13
     510             -61       1       1                               0D     14
     508       8                                                00010000D     15
     508                       1       1                               0D     16
     508       9                                                00010000D     17
     508                       1       1                               0D     18
     508      10                                                00010000D     19
     508                       1       1                               0D     20
     508      11                                                00010000D     21
     508                       1       1                               0D     22
     508      12                                                00010000D     23
     508                       1       1                               0D     24
     126      13                                                00010000D     25
     126       0               3       0                               0D     26
     126      16                                                00010000D     27
     126       0               3       0                               0D     28
     126      19                                                00010000D     29
     126       0               3       0                               0D     30
     126      22                                                00010000D     31
     126       0               3       0                               0D     32
     126      25                                                00010000D     33
     126       0               3       0                               0D     34
     126      28                                                00010000D     35
     126       0               3       0                               0D     36
     126      31                                                00010000D     37
     126       0               3       0                               0D     38
     126      34                                                00010000D     39
     126       0               3       0                               0D     40
     126      37                                                00010000D     41
     126       0               3       0                               0D     42
     128      40                                                00010000D     43
     128       0     -61       7       0                               0D     44
     128      47                                                00010000D     45
     128       0     -61       6       0                               0D     46
     128      53                                                00010000D     47
     128       0     -61       6       0                               0D     48
     128      59                                                00010000D     49
     128       0     -61       7       0                               0D     50
     128      66                                                00010000D     51
     128       0     -61       7       0                               0D     52
     502      73                                                00010000D     53
     502                       5       1                               0D     54
     504      78                                                00010001D     55
     504                       2       1                               0D     56
     406      80                                                00000000D     57
     406                       1      15                               0D     58
     406      81                       0                        00000000D     59
     406                       1       3                               0D     60
     314      82                                                00000200D     61
     314                       1       0                               0D     62
186,3,1,0,0,1,57;                                                      1P      1
514,5,5,1,7,1,9,1,11,1,13,1;                                           3P      2
510,43,1,1,15;                                                         5P      3
510,45,1,1,17;                                                         7P      4
510,47,1,1,19;                                                         9P      5
510,49,1,1,21;                                                        11P      6
510,51,1,1,23;                                                        13P      7
508,3,0,55,1,1,0,0,55,2,1,0,0,55,3,1,0;                               15P      8
508,4,0,55,4,1,0,0,55,5,0,0,0,55,6,0,0,0,55,2,0,0;                    17P      9
508,4,0,55,7,1,0,0,55,8,0,0,0,55,4,0,0,0,55,1,0,0;                    19P     10
508,4,0,55,6,1,0,0,55,9,0,0,0,55,7,0,0,0,55,3,0,0;                    21P     11
508,3,0,55,8,1,0,0,55,9,1,0,0,55,5,1,0;                               23P     12
126,1,1,0,0,1,0,0.,0.,70.,70.,1.,1.,69.9999971333509,                 25P     13
2.05664764507674D-6,0.,-2.86664908344392D-6,2.05664764507674D-6,      25P     14
0.,0.,70.,0.,0.,0.;                                                   25P     15
126,1,1,0,0,1,0,0.,0.,70.,70.,1.,1.,-2.86664908344392D-6,             27P     16
2.05664764507674D-6,0.,-2.86664908344392D-6,70.0000020566476,0.,      27P     17
0.,70.,0.,0.,0.;                                                      27P     18
126,1,1,0,0,1,0,0.,0.,98.9949493661167,98.9949493661167,1.,1.,        29P     19
-2.86664908344392D-6,70.0000020566476,0.,69.9999971333509,            29P     20
2.05664764507674D-6,0.,0.,98.9949493661167,0.,0.,0.;                  29P     21
126,1,1,0,0,1,0,0.,0.,7.5,7.5,1.,1.,-2.86664908344392D-6,             31P     22
2.05664764507674D-6,0.,-2.86664908344392D-6,2.05664764507674D-6,      31P     23
7.5,0.,7.5,0.,0.,0.;                                                  31P     24
126,1,1,0,0,1,0,-70.,-70.,0.,0.,1.,1.,-2.86664908344392D-6,           33P     25
70.0000020566476,7.5,-2.86664908344392D-6,2.05664764507674D-6,        33P     26
7.5,-70.,0.,0.,0.,0.;                                                 33P     27
126,1,1,0,0,1,0,0.,0.,7.5,7.5,1.,1.,-2.86664908344392D-6,             35P     28
70.0000020566476,0.,-2.86664908344392D-6,70.0000020566476,7.5,        35P     29
0.,7.5,0.,0.,0.;                                                      35P     30
126,1,1,0,0,1,0,-2.5,-2.5,5.,5.,1.,1.,69.9999971333509,               37P     31
2.05664764507674D-6,0.,69.9999971333509,2.05664764507674D-6,7.5,      37P     32
-2.5,5.,0.,0.,0.;                                                     37P     33
126,1,1,0,0,1,0,-70.,-70.,0.,0.,1.,1.,-2.86664908344392D-6,           39P     34
2.05664764507674D-6,7.5,69.9999971333509,2.05664764507674D-6,         39P     35
7.5,-70.,0.,0.,0.,0.;                                                 39P     36
126,1,1,0,0,1,0,-98.9949493661167,-98.9949493661167,0.,0.,1.,1.,      41P     37
69.9999971333509,2.05664764507674D-6,7.5,-2.86664908344392D-6,        41P     38
70.0000020566476,7.5,-98.9949493661167,0.,0.,0.,0.;                   41P     39
128,1,1,1,1,0,0,1,0,0,-24.7497373415292,-24.7497373415292,            43P     40
45.2522626584708,45.2522626584708,-24.7497373415292,                  43P     41
-24.7497373415292,45.2522626584708,45.2522626584708,1.,1.,1.,1.,      43P     42
70.0009971333509,-0.000997943352356145,0.,-0.00100286664908467,       43P     43
-0.000997943352356145,0.,70.0009971333509,70.0010020566476,0.,        43P     44
-0.00100286664908467,70.0010020566476,0.,-24.7497373415292,           43P     45
45.2522626584708,-24.7497373415292,45.2522626584708;                  43P     46
128,1,1,1,1,0,0,1,0,0,-0.001,-0.001,70.001,70.001,-2.501,-2.501,      45P     47
5.001,5.001,1.,1.,1.,1.,-2.86664908344392D-6,70.0010020566476,        45P     48
-0.00099999999999989,-2.86664908344392D-6,-0.000997943352359698,      45P     49
-0.00099999999999989,-2.86664908344392D-6,70.0010020566476,           45P     50
7.501,-2.86664908344392D-6,-0.000997943352359698,7.501,-0.001,        45P     51
70.001,-2.501,5.001;                                                  45P     52
128,1,1,1,1,0,0,1,0,0,-0.001,-0.001,70.001,70.001,-2.501,-2.501,      47P     53
5.001,5.001,1.,1.,1.,1.,-0.00100286664908344,                         47P     54
2.05664764507674D-6,-0.00099999999999989,70.0009971333509,            47P     55
2.05664764507674D-6,-0.00099999999999989,-0.00100286664908344,        47P     56
2.05664764507674D-6,7.501,70.0009971333509,2.05664764507674D-6,       47P     57
7.501,-0.001,70.001,-2.501,5.001;                                     47P     58
128,1,1,1,1,0,0,1,0,0,-0.001,-0.001,98.9959493661166,                 49P     59
98.9959493661166,-2.501,-2.501,5.001,5.001,1.,1.,1.,1.,               49P     60
70.0007042401321,-0.000705050133541471,-0.00100000000000033,          49P     61
-0.000709973430275568,70.0007091634288,-0.00100000000000033,          49P     62
70.0007042401321,-0.000705050133541471,7.501,                         49P     63
-0.000709973430275568,70.0007091634288,7.501,-0.001,                  49P     64
98.9959493661166,-2.501,5.001;                                        49P     65
128,1,1,1,1,0,0,1,0,0,-24.7497373415292,-24.7497373415292,            51P     66
45.2522626584708,45.2522626584708,-24.7497373415292,                  51P     67
-24.7497373415292,45.2522626584708,45.2522626584708,1.,1.,1.,1.,      51P     68
-0.00100286664908467,-0.000997943352356145,7.5,70.0009971333509,      51P     69
-0.000997943352356145,7.5,-0.00100286664908467,70.0010020566476,      51P     70
7.5,70.0009971333509,70.0010020566476,7.5,-24.7497373415292,          51P     71
45.2522626584708,-24.7497373415292,45.2522626584708;                  51P     72
502,6,69.9999971333509,2.05664764507674D-6,0.,                        53P     73
-2.86664908344392D-6,2.05664764507674D-6,0.,                          53P     74
-2.86664908344392D-6,70.0000020566476,0.,-2.86664908344392D-6,        53P     75
2.05664764507674D-6,7.5,-2.86664908344392D-6,70.0000020566476,        53P     76
7.5,69.9999971333509,2.05664764507674D-6,7.5;                         53P     77
504,9,25,53,1,53,2,27,53,2,53,3,29,53,3,53,1,31,53,2,53,4,33,53,      55P     78
5,53,4,35,53,3,53,5,37,53,1,53,6,39,53,4,53,6,41,53,6,53,5;           55P     79
406,1,2H67;                                                           57P     80
406,2,0,1H0;                                                          59P     81
314,100.,100.,100.,;                                                  61P     82
S      1G      4D     62P     82                                        T      1
