ISO-10303-21;
HEADER;
/* Generated by software containing ST-Developer
 * from STEP Tools, Inc. (www.steptools.com) 
 */

FILE_DESCRIPTION(
/* description */ (''),
/* implementation_level */ '2;1');

FILE_NAME(
/* name */ 
'D:/Impression 3d/Modeles/Design Maison/Photo/Bronica/SQindex1.step',
/* time_stamp */ '2021-05-07T18:55:22+02:00',
/* author */ (''),
/* organization */ (''),
/* preprocessor_version */ 'ST-DEVELOPER v18.1',
/* originating_system */ 'Autodesk Translation Framework v10.6.0.1341',

/* authorisation */ '');

FILE_SCHEMA (('AUTOMOTIVE_DESIGN { 1 0 10303 214 3 1 1 }'));
ENDSEC;

DATA;
#10=MECHANICAL_DESIGN_GEOMETRIC_PRESENTATION_REPRESENTATION('',(#13),#397);
#11=SHAPE_REPRESENTATION_RELATIONSHIP('SRR','None',#404,#12);
#12=ADVANCED_BREP_SHAPE_REPRESENTATION('',(#14),#396);
#13=STYLED_ITEM('',(#413),#14);
#14=MANIFOLD_SOLID_BREP('Corps1',#233);
#15=FACE_BOUND('',#42,.T.);
#16=FACE_BOUND('',#43,.T.);
#17=FACE_BOUND('',#53,.T.);
#18=FACE_BOUND('',#54,.T.);
#19=PLANE('',#250);
#20=PLANE('',#251);
#21=PLANE('',#261);
#22=PLANE('',#262);
#23=PLANE('',#263);
#24=PLANE('',#264);
#25=PLANE('',#265);
#26=PLANE('',#266);
#27=FACE_OUTER_BOUND('',#39,.T.);
#28=FACE_OUTER_BOUND('',#40,.T.);
#29=FACE_OUTER_BOUND('',#41,.T.);
#30=FACE_OUTER_BOUND('',#44,.T.);
#31=FACE_OUTER_BOUND('',#45,.T.);
#32=FACE_OUTER_BOUND('',#46,.T.);
#33=FACE_OUTER_BOUND('',#47,.T.);
#34=FACE_OUTER_BOUND('',#48,.T.);
#35=FACE_OUTER_BOUND('',#49,.T.);
#36=FACE_OUTER_BOUND('',#50,.T.);
#37=FACE_OUTER_BOUND('',#51,.T.);
#38=FACE_OUTER_BOUND('',#52,.T.);
#39=EDGE_LOOP('',(#157,#158,#159,#160));
#40=EDGE_LOOP('',(#161,#162,#163,#164));
#41=EDGE_LOOP('',(#165,#166,#167,#168,#169,#170,#171,#172));
#42=EDGE_LOOP('',(#173));
#43=EDGE_LOOP('',(#174));
#44=EDGE_LOOP('',(#175,#176,#177,#178));
#45=EDGE_LOOP('',(#179,#180,#181,#182));
#46=EDGE_LOOP('',(#183,#184,#185,#186));
#47=EDGE_LOOP('',(#187,#188,#189,#190));
#48=EDGE_LOOP('',(#191,#192,#193,#194));
#49=EDGE_LOOP('',(#195,#196,#197,#198));
#50=EDGE_LOOP('',(#199,#200,#201,#202));
#51=EDGE_LOOP('',(#203,#204,#205,#206));
#52=EDGE_LOOP('',(#207,#208,#209,#210,#211,#212,#213,#214));
#53=EDGE_LOOP('',(#215));
#54=EDGE_LOOP('',(#216));
#55=LINE('',#337,#77);
#56=LINE('',#340,#78);
#57=LINE('',#343,#79);
#58=LINE('',#345,#80);
#59=LINE('',#346,#81);
#60=LINE('',#349,#82);
#61=LINE('',#351,#83);
#62=LINE('',#353,#84);
#63=LINE('',#355,#85);
#64=LINE('',#357,#86);
#65=LINE('',#366,#87);
#66=LINE('',#370,#88);
#67=LINE('',#374,#89);
#68=LINE('',#377,#90);
#69=LINE('',#379,#91);
#70=LINE('',#380,#92);
#71=LINE('',#383,#93);
#72=LINE('',#384,#94);
#73=LINE('',#387,#95);
#74=LINE('',#388,#96);
#75=LINE('',#390,#97);
#76=LINE('',#392,#98);
#77=VECTOR('',#273,10.);
#78=VECTOR('',#276,10.);
#79=VECTOR('',#279,10.);
#80=VECTOR('',#280,10.);
#81=VECTOR('',#281,10.);
#82=VECTOR('',#284,10.);
#83=VECTOR('',#285,10.);
#84=VECTOR('',#286,10.);
#85=VECTOR('',#287,10.);
#86=VECTOR('',#288,10.);
#87=VECTOR('',#299,10.);
#88=VECTOR('',#304,0.900000000000001);
#89=VECTOR('',#309,0.9);
#90=VECTOR('',#312,10.);
#91=VECTOR('',#313,10.);
#92=VECTOR('',#314,10.);
#93=VECTOR('',#317,10.);
#94=VECTOR('',#318,10.);
#95=VECTOR('',#321,10.);
#96=VECTOR('',#322,10.);
#97=VECTOR('',#325,10.);
#98=VECTOR('',#328,10.);
#99=CIRCLE('',#248,0.5);
#100=CIRCLE('',#249,0.5);
#101=CIRCLE('',#252,0.5);
#102=CIRCLE('',#253,0.9);
#103=CIRCLE('',#254,0.900000000000001);
#104=CIRCLE('',#256,0.5);
#105=CIRCLE('',#258,0.900000000000001);
#106=CIRCLE('',#260,0.9);
#107=VERTEX_POINT('',#333);
#108=VERTEX_POINT('',#334);
#109=VERTEX_POINT('',#336);
#110=VERTEX_POINT('',#338);
#111=VERTEX_POINT('',#342);
#112=VERTEX_POINT('',#344);
#113=VERTEX_POINT('',#348);
#114=VERTEX_POINT('',#350);
#115=VERTEX_POINT('',#352);
#116=VERTEX_POINT('',#354);
#117=VERTEX_POINT('',#356);
#118=VERTEX_POINT('',#359);
#119=VERTEX_POINT('',#361);
#120=VERTEX_POINT('',#364);
#121=VERTEX_POINT('',#368);
#122=VERTEX_POINT('',#372);
#123=VERTEX_POINT('',#376);
#124=VERTEX_POINT('',#378);
#125=VERTEX_POINT('',#382);
#126=VERTEX_POINT('',#386);
#127=EDGE_CURVE('',#107,#108,#99,.T.);
#128=EDGE_CURVE('',#108,#109,#55,.T.);
#129=EDGE_CURVE('',#109,#110,#100,.T.);
#130=EDGE_CURVE('',#110,#107,#56,.T.);
#131=EDGE_CURVE('',#110,#111,#57,.T.);
#132=EDGE_CURVE('',#112,#111,#58,.T.);
#133=EDGE_CURVE('',#107,#112,#59,.T.);
#134=EDGE_CURVE('',#113,#109,#60,.T.);
#135=EDGE_CURVE('',#113,#114,#61,.T.);
#136=EDGE_CURVE('',#114,#115,#62,.T.);
#137=EDGE_CURVE('',#115,#116,#63,.T.);
#138=EDGE_CURVE('',#117,#116,#64,.T.);
#139=EDGE_CURVE('',#111,#117,#101,.T.);
#140=EDGE_CURVE('',#118,#118,#102,.T.);
#141=EDGE_CURVE('',#119,#119,#103,.T.);
#142=EDGE_CURVE('',#120,#112,#104,.T.);
#143=EDGE_CURVE('',#117,#120,#65,.T.);
#144=EDGE_CURVE('',#121,#121,#105,.T.);
#145=EDGE_CURVE('',#121,#119,#66,.T.);
#146=EDGE_CURVE('',#122,#122,#106,.T.);
#147=EDGE_CURVE('',#122,#118,#67,.T.);
#148=EDGE_CURVE('',#113,#123,#68,.T.);
#149=EDGE_CURVE('',#124,#123,#69,.T.);
#150=EDGE_CURVE('',#114,#124,#70,.T.);
#151=EDGE_CURVE('',#125,#124,#71,.T.);
#152=EDGE_CURVE('',#115,#125,#72,.T.);
#153=EDGE_CURVE('',#126,#125,#73,.T.);
#154=EDGE_CURVE('',#116,#126,#74,.T.);
#155=EDGE_CURVE('',#120,#126,#75,.T.);
#156=EDGE_CURVE('',#123,#108,#76,.T.);
#157=ORIENTED_EDGE('',*,*,#127,.T.);
#158=ORIENTED_EDGE('',*,*,#128,.T.);
#159=ORIENTED_EDGE('',*,*,#129,.T.);
#160=ORIENTED_EDGE('',*,*,#130,.T.);
#161=ORIENTED_EDGE('',*,*,#130,.F.);
#162=ORIENTED_EDGE('',*,*,#131,.T.);
#163=ORIENTED_EDGE('',*,*,#132,.F.);
#164=ORIENTED_EDGE('',*,*,#133,.F.);
#165=ORIENTED_EDGE('',*,*,#129,.F.);
#166=ORIENTED_EDGE('',*,*,#134,.F.);
#167=ORIENTED_EDGE('',*,*,#135,.T.);
#168=ORIENTED_EDGE('',*,*,#136,.T.);
#169=ORIENTED_EDGE('',*,*,#137,.T.);
#170=ORIENTED_EDGE('',*,*,#138,.F.);
#171=ORIENTED_EDGE('',*,*,#139,.F.);
#172=ORIENTED_EDGE('',*,*,#131,.F.);
#173=ORIENTED_EDGE('',*,*,#140,.F.);
#174=ORIENTED_EDGE('',*,*,#141,.F.);
#175=ORIENTED_EDGE('',*,*,#142,.T.);
#176=ORIENTED_EDGE('',*,*,#132,.T.);
#177=ORIENTED_EDGE('',*,*,#139,.T.);
#178=ORIENTED_EDGE('',*,*,#143,.T.);
#179=ORIENTED_EDGE('',*,*,#144,.F.);
#180=ORIENTED_EDGE('',*,*,#145,.T.);
#181=ORIENTED_EDGE('',*,*,#141,.T.);
#182=ORIENTED_EDGE('',*,*,#145,.F.);
#183=ORIENTED_EDGE('',*,*,#146,.F.);
#184=ORIENTED_EDGE('',*,*,#147,.T.);
#185=ORIENTED_EDGE('',*,*,#140,.T.);
#186=ORIENTED_EDGE('',*,*,#147,.F.);
#187=ORIENTED_EDGE('',*,*,#135,.F.);
#188=ORIENTED_EDGE('',*,*,#148,.T.);
#189=ORIENTED_EDGE('',*,*,#149,.F.);
#190=ORIENTED_EDGE('',*,*,#150,.F.);
#191=ORIENTED_EDGE('',*,*,#136,.F.);
#192=ORIENTED_EDGE('',*,*,#150,.T.);
#193=ORIENTED_EDGE('',*,*,#151,.F.);
#194=ORIENTED_EDGE('',*,*,#152,.F.);
#195=ORIENTED_EDGE('',*,*,#137,.F.);
#196=ORIENTED_EDGE('',*,*,#152,.T.);
#197=ORIENTED_EDGE('',*,*,#153,.F.);
#198=ORIENTED_EDGE('',*,*,#154,.F.);
#199=ORIENTED_EDGE('',*,*,#143,.F.);
#200=ORIENTED_EDGE('',*,*,#138,.T.);
#201=ORIENTED_EDGE('',*,*,#154,.T.);
#202=ORIENTED_EDGE('',*,*,#155,.F.);
#203=ORIENTED_EDGE('',*,*,#128,.F.);
#204=ORIENTED_EDGE('',*,*,#156,.F.);
#205=ORIENTED_EDGE('',*,*,#148,.F.);
#206=ORIENTED_EDGE('',*,*,#134,.T.);
#207=ORIENTED_EDGE('',*,*,#127,.F.);
#208=ORIENTED_EDGE('',*,*,#133,.T.);
#209=ORIENTED_EDGE('',*,*,#142,.F.);
#210=ORIENTED_EDGE('',*,*,#155,.T.);
#211=ORIENTED_EDGE('',*,*,#153,.T.);
#212=ORIENTED_EDGE('',*,*,#151,.T.);
#213=ORIENTED_EDGE('',*,*,#149,.T.);
#214=ORIENTED_EDGE('',*,*,#156,.T.);
#215=ORIENTED_EDGE('',*,*,#146,.T.);
#216=ORIENTED_EDGE('',*,*,#144,.T.);
#217=CYLINDRICAL_SURFACE('',#247,0.5);
#218=CYLINDRICAL_SURFACE('',#255,0.5);
#219=CYLINDRICAL_SURFACE('',#257,0.900000000000001);
#220=CYLINDRICAL_SURFACE('',#259,0.9);
#221=ADVANCED_FACE('',(#27),#217,.T.);
#222=ADVANCED_FACE('',(#28),#19,.T.);
#223=ADVANCED_FACE('',(#29,#15,#16),#20,.F.);
#224=ADVANCED_FACE('',(#30),#218,.T.);
#225=ADVANCED_FACE('',(#31),#219,.F.);
#226=ADVANCED_FACE('',(#32),#220,.F.);
#227=ADVANCED_FACE('',(#33),#21,.T.);
#228=ADVANCED_FACE('',(#34),#22,.T.);
#229=ADVANCED_FACE('',(#35),#23,.T.);
#230=ADVANCED_FACE('',(#36),#24,.T.);
#231=ADVANCED_FACE('',(#37),#25,.T.);
#232=ADVANCED_FACE('',(#38,#17,#18),#26,.T.);
#233=CLOSED_SHELL('',(#221,#222,#223,#224,#225,#226,#227,#228,#229,#230,
#231,#232));
#234=DERIVED_UNIT_ELEMENT(#236,1.);
#235=DERIVED_UNIT_ELEMENT(#399,-3.);
#236=(
MASS_UNIT()
NAMED_UNIT(*)
SI_UNIT(.KILO.,.GRAM.)
);
#237=DERIVED_UNIT((#234,#235));
#238=MEASURE_REPRESENTATION_ITEM('density measure',
POSITIVE_RATIO_MEASURE(7850.),#237);
#239=PROPERTY_DEFINITION_REPRESENTATION(#244,#241);
#240=PROPERTY_DEFINITION_REPRESENTATION(#245,#242);
#241=REPRESENTATION('material name',(#243),#396);
#242=REPRESENTATION('density',(#238),#396);
#243=DESCRIPTIVE_REPRESENTATION_ITEM('Acier','Acier');
#244=PROPERTY_DEFINITION('material property','material name',#406);
#245=PROPERTY_DEFINITION('material property','density of part',#406);
#246=AXIS2_PLACEMENT_3D('placement',#331,#267,#268);
#247=AXIS2_PLACEMENT_3D('',#332,#269,#270);
#248=AXIS2_PLACEMENT_3D('',#335,#271,#272);
#249=AXIS2_PLACEMENT_3D('',#339,#274,#275);
#250=AXIS2_PLACEMENT_3D('',#341,#277,#278);
#251=AXIS2_PLACEMENT_3D('',#347,#282,#283);
#252=AXIS2_PLACEMENT_3D('',#358,#289,#290);
#253=AXIS2_PLACEMENT_3D('',#360,#291,#292);
#254=AXIS2_PLACEMENT_3D('',#362,#293,#294);
#255=AXIS2_PLACEMENT_3D('',#363,#295,#296);
#256=AXIS2_PLACEMENT_3D('',#365,#297,#298);
#257=AXIS2_PLACEMENT_3D('',#367,#300,#301);
#258=AXIS2_PLACEMENT_3D('',#369,#302,#303);
#259=AXIS2_PLACEMENT_3D('',#371,#305,#306);
#260=AXIS2_PLACEMENT_3D('',#373,#307,#308);
#261=AXIS2_PLACEMENT_3D('',#375,#310,#311);
#262=AXIS2_PLACEMENT_3D('',#381,#315,#316);
#263=AXIS2_PLACEMENT_3D('',#385,#319,#320);
#264=AXIS2_PLACEMENT_3D('',#389,#323,#324);
#265=AXIS2_PLACEMENT_3D('',#391,#326,#327);
#266=AXIS2_PLACEMENT_3D('',#393,#329,#330);
#267=DIRECTION('axis',(0.,0.,1.));
#268=DIRECTION('refdir',(1.,0.,0.));
#269=DIRECTION('center_axis',(0.,1.,0.));
#270=DIRECTION('ref_axis',(0.707106781186543,0.,0.707106781186552));
#271=DIRECTION('center_axis',(0.,-1.,0.));
#272=DIRECTION('ref_axis',(0.707106781186543,0.,0.707106781186552));
#273=DIRECTION('',(0.,-1.,0.));
#274=DIRECTION('center_axis',(0.,1.,0.));
#275=DIRECTION('ref_axis',(0.707106781186543,0.,0.707106781186552));
#276=DIRECTION('',(0.,1.,0.));
#277=DIRECTION('center_axis',(1.,0.,0.));
#278=DIRECTION('ref_axis',(0.,0.,-1.));
#279=DIRECTION('',(0.,0.,-1.));
#280=DIRECTION('',(0.,-1.,0.));
#281=DIRECTION('',(0.,0.,-1.));
#282=DIRECTION('center_axis',(0.,1.,0.));
#283=DIRECTION('ref_axis',(1.,0.,0.));
#284=DIRECTION('',(1.,0.,0.));
#285=DIRECTION('',(3.04344485038971E-33,0.,-1.));
#286=DIRECTION('',(1.,0.,0.));
#287=DIRECTION('',(0.,0.,1.));
#288=DIRECTION('',(-1.,0.,0.));
#289=DIRECTION('center_axis',(0.,1.,0.));
#290=DIRECTION('ref_axis',(0.707106781186543,0.,-0.707106781186552));
#291=DIRECTION('center_axis',(0.,-1.,0.));
#292=DIRECTION('ref_axis',(1.,0.,0.));
#293=DIRECTION('center_axis',(0.,-1.,0.));
#294=DIRECTION('ref_axis',(1.,0.,0.));
#295=DIRECTION('center_axis',(0.,1.,0.));
#296=DIRECTION('ref_axis',(0.707106781186543,0.,-0.707106781186552));
#297=DIRECTION('center_axis',(0.,-1.,0.));
#298=DIRECTION('ref_axis',(0.707106781186543,0.,-0.707106781186552));
#299=DIRECTION('',(0.,1.,0.));
#300=DIRECTION('center_axis',(0.,1.,0.));
#301=DIRECTION('ref_axis',(1.,0.,0.));
#302=DIRECTION('center_axis',(0.,-1.,0.));
#303=DIRECTION('ref_axis',(1.,0.,0.));
#304=DIRECTION('',(0.,-1.,0.));
#305=DIRECTION('center_axis',(0.,1.,0.));
#306=DIRECTION('ref_axis',(1.,0.,0.));
#307=DIRECTION('center_axis',(0.,-1.,0.));
#308=DIRECTION('ref_axis',(1.,0.,0.));
#309=DIRECTION('',(0.,-1.,0.));
#310=DIRECTION('center_axis',(-1.,0.,-3.04344485038971E-33));
#311=DIRECTION('ref_axis',(-3.04344485038971E-33,0.,1.));
#312=DIRECTION('',(0.,1.,0.));
#313=DIRECTION('',(-3.04344485038971E-33,0.,1.));
#314=DIRECTION('',(0.,1.,0.));
#315=DIRECTION('center_axis',(0.,0.,-1.));
#316=DIRECTION('ref_axis',(-1.,0.,0.));
#317=DIRECTION('',(-1.,0.,0.));
#318=DIRECTION('',(0.,1.,0.));
#319=DIRECTION('center_axis',(1.,0.,0.));
#320=DIRECTION('ref_axis',(0.,0.,-1.));
#321=DIRECTION('',(0.,0.,-1.));
#322=DIRECTION('',(0.,1.,0.));
#323=DIRECTION('center_axis',(0.,0.,-1.));
#324=DIRECTION('ref_axis',(-1.,0.,0.));
#325=DIRECTION('',(-1.,0.,0.));
#326=DIRECTION('center_axis',(0.,0.,1.));
#327=DIRECTION('ref_axis',(1.,0.,0.));
#328=DIRECTION('',(1.,0.,0.));
#329=DIRECTION('center_axis',(0.,1.,0.));
#330=DIRECTION('ref_axis',(1.,0.,0.));
#331=CARTESIAN_POINT('',(0.,0.,0.));
#332=CARTESIAN_POINT('Origin',(7.,0.,80.5));
#333=CARTESIAN_POINT('',(7.5,0.6,80.5));
#334=CARTESIAN_POINT('',(7.,0.6,81.));
#335=CARTESIAN_POINT('Origin',(7.,0.6,80.5));
#336=CARTESIAN_POINT('',(7.,0.,81.));
#337=CARTESIAN_POINT('',(7.,0.,81.));
#338=CARTESIAN_POINT('',(7.5,0.,80.5));
#339=CARTESIAN_POINT('Origin',(7.,0.,80.5));
#340=CARTESIAN_POINT('',(7.5,0.,80.5));
#341=CARTESIAN_POINT('Origin',(7.5,0.,81.));
#342=CARTESIAN_POINT('',(7.5,0.,79.5));
#343=CARTESIAN_POINT('',(7.5,0.,81.));
#344=CARTESIAN_POINT('',(7.5,0.6,79.5));
#345=CARTESIAN_POINT('',(7.5,0.,79.5));
#346=CARTESIAN_POINT('',(7.5,0.6,81.));
#347=CARTESIAN_POINT('Origin',(3.75,0.,40.5));
#348=CARTESIAN_POINT('',(-2.46519032881566E-31,0.,81.));
#349=CARTESIAN_POINT('',(4.5,0.,81.));
#350=CARTESIAN_POINT('',(0.,0.,0.));
#351=CARTESIAN_POINT('',(-2.46519032881566E-31,0.,81.));
#352=CARTESIAN_POINT('',(4.5,0.,0.));
#353=CARTESIAN_POINT('',(0.,0.,0.));
#354=CARTESIAN_POINT('',(4.5,0.,79.));
#355=CARTESIAN_POINT('',(4.5,0.,0.));
#356=CARTESIAN_POINT('',(7.,0.,79.));
#357=CARTESIAN_POINT('',(7.5,0.,79.));
#358=CARTESIAN_POINT('Origin',(7.,0.,79.5));
#359=CARTESIAN_POINT('',(1.10000002980232,0.,69.));
#360=CARTESIAN_POINT('Origin',(2.00000002980232,0.,69.));
#361=CARTESIAN_POINT('',(1.10000002980232,0.,10.));
#362=CARTESIAN_POINT('Origin',(2.00000002980232,0.,10.));
#363=CARTESIAN_POINT('Origin',(7.,0.,79.5));
#364=CARTESIAN_POINT('',(7.,0.6,79.));
#365=CARTESIAN_POINT('Origin',(7.,0.6,79.5));
#366=CARTESIAN_POINT('',(7.,0.,79.));
#367=CARTESIAN_POINT('Origin',(2.00000002980232,0.,10.));
#368=CARTESIAN_POINT('',(1.10000002980232,0.6,10.));
#369=CARTESIAN_POINT('Origin',(2.00000002980232,0.6,10.));
#370=CARTESIAN_POINT('',(1.10000002980232,0.,10.));
#371=CARTESIAN_POINT('Origin',(2.00000002980232,0.,69.));
#372=CARTESIAN_POINT('',(1.10000002980232,0.6,69.));
#373=CARTESIAN_POINT('Origin',(2.00000002980232,0.6,69.));
#374=CARTESIAN_POINT('',(1.10000002980232,0.,69.));
#375=CARTESIAN_POINT('Origin',(0.,0.,0.));
#376=CARTESIAN_POINT('',(0.,0.6,81.));
#377=CARTESIAN_POINT('',(-2.46519032881566E-31,0.,81.));
#378=CARTESIAN_POINT('',(0.,0.6,0.));
#379=CARTESIAN_POINT('',(-2.46519032881566E-31,0.6,81.));
#380=CARTESIAN_POINT('',(0.,0.,0.));
#381=CARTESIAN_POINT('Origin',(4.5,0.,0.));
#382=CARTESIAN_POINT('',(4.5,0.6,0.));
#383=CARTESIAN_POINT('',(0.,0.6,0.));
#384=CARTESIAN_POINT('',(4.5,0.,0.));
#385=CARTESIAN_POINT('Origin',(4.5,0.,79.));
#386=CARTESIAN_POINT('',(4.5,0.6,79.));
#387=CARTESIAN_POINT('',(4.5,0.6,0.));
#388=CARTESIAN_POINT('',(4.5,0.,79.));
#389=CARTESIAN_POINT('Origin',(7.5,0.,79.));
#390=CARTESIAN_POINT('',(7.5,0.6,79.));
#391=CARTESIAN_POINT('Origin',(0.,0.,81.));
#392=CARTESIAN_POINT('',(4.5,0.6,81.));
#393=CARTESIAN_POINT('Origin',(3.75,0.6,40.5));
#394=UNCERTAINTY_MEASURE_WITH_UNIT(LENGTH_MEASURE(0.01),#398,
'DISTANCE_ACCURACY_VALUE',
'Maximum model space distance between geometric entities at asserted c
onnectivities');
#395=UNCERTAINTY_MEASURE_WITH_UNIT(LENGTH_MEASURE(0.01),#398,
'DISTANCE_ACCURACY_VALUE',
'Maximum model space distance between geometric entities at asserted c
onnectivities');
#396=(
GEOMETRIC_REPRESENTATION_CONTEXT(3)
GLOBAL_UNCERTAINTY_ASSIGNED_CONTEXT((#394))
GLOBAL_UNIT_ASSIGNED_CONTEXT((#398,#400,#401))
REPRESENTATION_CONTEXT('','3D')
);
#397=(
GEOMETRIC_REPRESENTATION_CONTEXT(3)
GLOBAL_UNCERTAINTY_ASSIGNED_CONTEXT((#395))
GLOBAL_UNIT_ASSIGNED_CONTEXT((#398,#400,#401))
REPRESENTATION_CONTEXT('','3D')
);
#398=(
LENGTH_UNIT()
NAMED_UNIT(*)
SI_UNIT(.MILLI.,.METRE.)
);
#399=(
LENGTH_UNIT()
NAMED_UNIT(*)
SI_UNIT($,.METRE.)
);
#400=(
NAMED_UNIT(*)
PLANE_ANGLE_UNIT()
SI_UNIT($,.RADIAN.)
);
#401=(
NAMED_UNIT(*)
SI_UNIT($,.STERADIAN.)
SOLID_ANGLE_UNIT()
);
#402=SHAPE_DEFINITION_REPRESENTATION(#403,#404);
#403=PRODUCT_DEFINITION_SHAPE('',$,#406);
#404=SHAPE_REPRESENTATION('',(#246),#396);
#405=PRODUCT_DEFINITION_CONTEXT('part definition',#410,'design');
#406=PRODUCT_DEFINITION('SQSl1baseprod1','SQSl1baseprod1 v0',#407,#405);
#407=PRODUCT_DEFINITION_FORMATION('',$,#412);
#408=PRODUCT_RELATED_PRODUCT_CATEGORY('SQSl1baseprod1 v0',
'SQSl1baseprod1 v0',(#412));
#409=APPLICATION_PROTOCOL_DEFINITION('international standard',
'automotive_design',2009,#410);
#410=APPLICATION_CONTEXT(
'Core Data for Automotive Mechanical Design Process');
#411=PRODUCT_CONTEXT('part definition',#410,'mechanical');
#412=PRODUCT('SQSl1baseprod1','SQSl1baseprod1 v0',$,(#411));
#413=PRESENTATION_STYLE_ASSIGNMENT((#414));
#414=SURFACE_STYLE_USAGE(.BOTH.,#415);
#415=SURFACE_SIDE_STYLE('',(#416));
#416=SURFACE_STYLE_FILL_AREA(#417);
#417=FILL_AREA_STYLE('Acier - Satin\X\E9',(#418));
#418=FILL_AREA_STYLE_COLOUR('Acier - Satin\X\E9',#419);
#419=COLOUR_RGB('Acier - Satin\X\E9',0.627450980392157,0.627450980392157,
0.627450980392157);
ENDSEC;
END-ISO-10303-21;
