                                                                        S      1
,,,5HFS D3,33HAutoCAD 2019 - Français (French),62HAutodesk Translation G      1
Framework DWG producer (atf_dwg_producer),32,38,7,99,15,,1.,1,4HINCH,1, G      2
0.08,15H20210522.125546,0.000393700787401575,10000.,,7Hunknown,11,0,15H2G      3
0210522.064317;                                                         G      4
     186       1                       0                        00000000D      1
     186             -77       1       0                               0D      2
     514       2                                                00010000D      3
     514                       1       1                               0D      4
     510       3                                                00010000D      5
     510             -77       1       1                               0D      6
     510       4                                                00010000D      7
     510             -77       1       1                               0D      8
     510       5                                                00010000D      9
     510             -77       1       1                               0D     10
     510       6                                                00010000D     11
     510             -77       1       1                               0D     12
     510       7                                                00010000D     13
     510             -77       1       1                               0D     14
     510       8                                                00010000D     15
     510             -77       1       1                               0D     16
     508       9                                                00010000D     17
     508                       1       1                               0D     18
     508      10                                                00010000D     19
     508                       1       1                               0D     20
     508      11                                                00010000D     21
     508                       1       1                               0D     22
     508      12                                                00010000D     23
     508                       1       1                               0D     24
     508      13                                                00010000D     25
     508                       1       1                               0D     26
     508      14                                                00010000D     27
     508                       1       1                               0D     28
     508      15                                                00010000D     29
     508                       1       1                               0D     30
     508      16                                                00010000D     31
     508                       1       1                               0D     32
     126      17                                                00010000D     33
     126       0               3       0                               0D     34
     126      20                                                00010000D     35
     126       0               3       0                               0D     36
     126      23                                                00010000D     37
     126       0               3       0                               0D     38
     126      26                                                00010000D     39
     126       0              12       0                               0D     40
     126      38                                                00010000D     41
     126       0               3       0                               0D     42
     126      41                                                00010000D     43
     126       0               3       0                               0D     44
     126      44                                                00010000D     45
     126       0               3       0                               0D     46
     126      47                                                00010000D     47
     126       0               3       0                               0D     48
     126      50                                                00010000D     49
     126       0               3       0                               0D     50
     126      53                                                00010000D     51
     126       0               3       0                               0D     52
     126      56                                                00010000D     53
     126       0              12       0                               0D     54
     126      68                                                00010000D     55
     126       0               3       0                               0D     56
     128      71                                                00010000D     57
     128       0     -77       7       0                               0D     58
     128      78                                                00010000D     59
     128       0     -77       6       0                               0D     60
     128      84                                                00010000D     61
     128       0     -77       6       0                               0D     62
     128      90                                                00010000D     63
     128       0     -77      20       0                               0D     64
     128     110                                                00010000D     65
     128       0     -77       7       0                               0D     66
     128     117                                                00010000D     67
     128       0     -77       7       0                               0D     68
     502     124                                                00010000D     69
     502                       6       1                               0D     70
     504     130                                                00010001D     71
     504                       3       1                               0D     72
     406     133                                                00000000D     73
     406                       1      15                               0D     74
     406     134                       0                        00000000D     75
     406                       1       3                               0D     76
     314     135                                                00000200D     77
     314                       1       0                               0D     78
186,3,1,0,0,1,73;                                                      1P      1
514,6,5,1,7,1,9,1,11,1,13,1,15,1;                                      3P      2
510,57,2,1,17,19;                                                      5P      3
510,59,1,1,21;                                                         7P      4
510,61,1,1,23;                                                         9P      5
510,63,1,1,25;                                                        11P      6
510,65,1,1,27;                                                        13P      7
510,67,2,1,29,31;                                                     15P      8
508,3,0,71,1,1,0,0,71,2,1,0,0,71,3,1,0;                               17P      9
508,1,0,71,4,1,0;                                                     19P     10
508,4,0,71,5,1,0,0,71,6,0,0,0,71,7,0,0,0,71,2,0,0;                    21P     11
508,4,0,71,8,1,0,0,71,9,0,0,0,71,5,0,0,0,71,1,0,0;                    23P     12
508,4,0,71,4,0,0,0,71,10,1,0,0,71,11,0,0,0,71,10,0,0;                 25P     13
508,4,0,71,7,1,0,0,71,12,0,0,0,71,8,0,0,0,71,3,0,0;                   27P     14
508,3,0,71,9,1,0,0,71,12,1,0,0,71,6,1,0;                              29P     15
508,1,0,71,11,1,0;                                                    31P     16
126,1,1,0,0,1,0,0.,0.,75.,75.,1.,1.,74.9999973048107,                 33P     17
-2.1617906895699D-6,0.,-2.69518932327628D-6,-2.1617906895699D-6,      33P     18
0.,0.,75.,0.,0.,0.;                                                   33P     19
126,1,1,0,0,1,0,0.,0.,75.,75.,1.,1.,-2.69518932327628D-6,             35P     20
-2.1617906895699D-6,0.,-2.69518932327628D-6,74.9999978382093,0.,      35P     21
0.,75.,0.,0.,0.;                                                      35P     22
126,1,1,0,0,1,0,0.,0.,106.066017177982,106.066017177982,1.,1.,        37P     23
-2.69518932327628D-6,74.9999978382093,0.,74.9999973048107,            37P     24
-2.1617906895699D-6,0.,0.,106.066017177982,0.,0.,0.;                  37P     25
126,8,2,0,1,0,0,-3.14159265358979,-3.14159265358979,                  39P     26
-3.14159265358979,-1.5707963267949,-1.5707963267949,0.,0.,            39P     27
1.5707963267949,1.5707963267949,3.14159265358979,                     39P     28
3.14159265358979,3.14159265358979,1.,0.707106781186548,1.,            39P     29
0.707106781186548,1.,0.707106781186548,1.,0.707106781186548,1.,       39P     30
29.9999973048107,24.9999978382093,0.,29.9999973048107,                39P     31
29.9999978382093,0.,24.9999973048107,29.9999978382093,0.,             39P     32
19.9999973048107,29.9999978382093,0.,19.9999973048107,                39P     33
24.9999978382093,0.,19.9999973048107,19.9999978382093,0.,             39P     34
24.9999973048107,19.9999978382093,0.,29.9999973048107,                39P     35
19.9999978382093,0.,29.9999973048107,24.9999978382093,0.,             39P     36
-3.14159265358979,3.14159265358979,0.,0.,0.;                          39P     37
126,1,1,0,0,1,0,0.,0.,7.5,7.5,1.,1.,-2.69518932327628D-6,             41P     38
-2.1617906895699D-6,0.,-2.69518932327628D-6,-2.1617906895699D-6,      41P     39
7.5,0.,7.5,0.,0.,0.;                                                  41P     40
126,1,1,0,0,1,0,-75.,-75.,0.,0.,1.,1.,-2.69518932327628D-6,           43P     41
74.9999978382093,7.5,-2.69518932327628D-6,-2.1617906895699D-6,        43P     42
7.5,-75.,0.,0.,0.,0.;                                                 43P     43
126,1,1,0,0,1,0,0.,0.,7.5,7.5,1.,1.,-2.69518932327628D-6,             45P     44
74.9999978382093,0.,-2.69518932327628D-6,74.9999978382093,7.5,        45P     45
0.,7.5,0.,0.,0.;                                                      45P     46
126,1,1,0,0,1,0,-2.5,-2.5,5.,5.,1.,1.,74.9999973048107,               47P     47
-2.1617906895699D-6,0.,74.9999973048107,-2.1617906895699D-6,7.5,      47P     48
-2.5,5.,0.,0.,0.;                                                     47P     49
126,1,1,0,0,1,0,-75.,-75.,0.,0.,1.,1.,-2.69518932327628D-6,           49P     50
-2.1617906895699D-6,7.5,74.9999973048107,-2.1617906895699D-6,         49P     51
7.5,-75.,0.,0.,0.,0.;                                                 49P     52
126,1,1,0,0,1,0,-0.5,-0.5,1.,1.,1.,1.,29.9999973048107,               51P     53
24.9999978382093,0.,29.9999973048107,24.9999978382093,7.5,-0.5,       51P     54
1.,0.,0.,0.;                                                          51P     55
126,8,2,0,1,0,0,-3.14159265358979,-3.14159265358979,                  53P     56
-3.14159265358979,-1.5707963267949,-1.5707963267949,0.,0.,            53P     57
1.5707963267949,1.5707963267949,3.14159265358979,                     53P     58
3.14159265358979,3.14159265358979,1.,0.707106781186548,1.,            53P     59
0.707106781186548,1.,0.707106781186548,1.,0.707106781186548,1.,       53P     60
29.9999973048107,24.9999978382093,7.5,29.9999973048107,               53P     61
19.9999978382093,7.5,24.9999973048107,19.9999978382093,7.5,           53P     62
19.9999973048107,19.9999978382093,7.5,19.9999973048107,               53P     63
24.9999978382093,7.5,19.9999973048107,29.9999978382093,7.5,           53P     64
24.9999973048107,29.9999978382093,7.5,29.9999973048107,               53P     65
29.9999978382093,7.5,29.9999973048107,24.9999978382093,7.5,           53P     66
-3.14159265358979,3.14159265358979,0.,0.,0.;                          53P     67
126,1,1,0,0,1,0,-106.066017177982,-106.066017177982,0.,0.,1.,1.,      55P     68
74.9999973048107,-2.1617906895699D-6,7.5,-2.69518932327628D-6,        55P     69
74.9999978382093,7.5,-106.066017177982,0.,0.,0.,0.;                   55P     70
128,1,1,1,1,0,0,1,0,0,-26.5175042944955,-26.5175042944955,            57P     71
48.4844957055045,48.4844957055045,-26.5175042944955,                  57P     72
-26.5175042944955,48.4844957055045,48.4844957055045,1.,1.,1.,1.,      57P     73
75.0009973048107,-0.00100216179069079,0.,-0.0010026951893245,         57P     74
-0.00100216179069079,0.,75.0009973048107,75.0009978382093,0.,         57P     75
-0.0010026951893245,75.0009978382093,0.,-26.5175042944955,            57P     76
48.4844957055045,-26.5175042944955,48.4844957055045;                  57P     77
128,1,1,1,1,0,0,1,0,0,-0.001,-0.001,75.001,75.001,-2.501,-2.501,      59P     78
5.001,5.001,1.,1.,1.,1.,-2.69518932327628D-6,75.0009978382093,        59P     79
-0.00099999999999989,-2.69518932327628D-6,-0.00100216179069434,       59P     80
-0.00099999999999989,-2.69518932327628D-6,75.0009978382093,           59P     81
7.501,-2.69518932327628D-6,-0.00100216179069434,7.501,-0.001,         59P     82
75.001,-2.501,5.001;                                                  59P     83
128,1,1,1,1,0,0,1,0,0,-0.001,-0.001,75.001,75.001,-2.501,-2.501,      61P     84
5.001,5.001,1.,1.,1.,1.,-0.00100269518932328,                         61P     85
-2.1617906895699D-6,-0.00099999999999989,75.0009973048107,            61P     86
-2.1617906895699D-6,-0.00099999999999989,-0.00100269518932328,        61P     87
-2.1617906895699D-6,7.501,75.0009973048107,-2.1617906895699D-6,       61P     88
7.501,-0.001,75.001,-2.501,5.001;                                     61P     89
128,1,8,1,2,0,1,0,0,1,-0.5,-0.5,1.,1.,-3.14159265358979,              63P     90
-3.14159265358979,-3.14159265358979,-1.5707963267949,                 63P     91
-1.5707963267949,0.,0.,1.5707963267949,1.5707963267949,               63P     92
3.14159265358979,3.14159265358979,3.14159265358979,1.,1.,             63P     93
0.707106781186548,0.707106781186548,1.,1.,0.707106781186548,          63P     94
0.707106781186548,1.,1.,0.707106781186548,0.707106781186548,1.,       63P     95
1.,0.707106781186548,0.707106781186548,1.,1.,29.9999973048107,        63P     96
24.9999978382093,0.,29.9999973048107,24.9999978382093,7.5,            63P     97
29.9999973048107,29.9999978382093,0.,29.9999973048107,                63P     98
29.9999978382093,7.5,24.9999973048107,29.9999978382093,0.,            63P     99
24.9999973048107,29.9999978382093,7.5,19.9999973048107,               63P    100
29.9999978382093,0.,19.9999973048107,29.9999978382093,7.5,            63P    101
19.9999973048107,24.9999978382093,0.,19.9999973048107,                63P    102
24.9999978382093,7.5,19.9999973048107,19.9999978382093,0.,            63P    103
19.9999973048107,19.9999978382093,7.5,24.9999973048107,               63P    104
19.9999978382093,0.,24.9999973048107,19.9999978382093,7.5,            63P    105
29.9999973048107,19.9999978382093,0.,29.9999973048107,                63P    106
19.9999978382093,7.5,29.9999973048107,24.9999978382093,0.,            63P    107
29.9999973048107,24.9999978382093,7.5,-0.5,1.,-3.14159265358979,      63P    108
3.14159265358979;                                                     63P    109
128,1,1,1,1,0,0,1,0,0,-0.001,-0.001,106.067017177982,                 65P    110
106.067017177982,-2.501,-2.501,5.001,5.001,1.,1.,1.,1.,               65P    111
75.0007044115919,-0.000709268571876118,-0.00100000000000033,          65P    112
-0.0007098019705154,75.0007049449905,-0.00100000000000033,            65P    113
75.0007044115919,-0.000709268571876118,7.501,                         65P    114
-0.0007098019705154,75.0007049449905,7.501,-0.001,                    65P    115
106.067017177982,-2.501,5.001;                                        65P    116
128,1,1,1,1,0,0,1,0,0,-26.5175042944955,-26.5175042944955,            67P    117
48.4844957055045,48.4844957055045,-26.5175042944955,                  67P    118
-26.5175042944955,48.4844957055045,48.4844957055045,1.,1.,1.,1.,      67P    119
-0.0010026951893245,-0.00100216179069079,7.5,75.0009973048107,        67P    120
-0.00100216179069079,7.5,-0.0010026951893245,75.0009978382093,        67P    121
7.5,75.0009973048107,75.0009978382093,7.5,-26.5175042944955,          67P    122
48.4844957055045,-26.5175042944955,48.4844957055045;                  67P    123
502,8,74.9999973048107,-2.1617906895699D-6,0.,                        69P    124
-2.69518932327628D-6,-2.1617906895699D-6,0.,                          69P    125
-2.69518932327628D-6,74.9999978382093,0.,29.9999973048107,            69P    126
24.9999978382093,0.,-2.69518932327628D-6,-2.1617906895699D-6,         69P    127
7.5,-2.69518932327628D-6,74.9999978382093,7.5,74.9999973048107,       69P    128
-2.1617906895699D-6,7.5,29.9999973048107,24.9999978382093,7.5;        69P    129
504,12,33,69,1,69,2,35,69,2,69,3,37,69,3,69,1,39,69,4,69,4,41,        71P    130
69,2,69,5,43,69,6,69,5,45,69,3,69,6,47,69,1,69,7,49,69,5,69,7,        71P    131
51,69,4,69,8,53,69,8,69,8,55,69,7,69,6;                               71P    132
406,1,2H67;                                                           73P    133
406,2,0,1H0;                                                          75P    134
314,100.,100.,100.,;                                                  77P    135
S      1G      4D     78P    135                                        T      1
