ISO-10303-21;
HEADER;
/* Generated by software containing ST-Developer
 * from STEP Tools, Inc. (www.steptools.com) 
 */

FILE_DESCRIPTION(
/* description */ (''),
/* implementation_level */ '2;1');

FILE_NAME(
/* name */ 'C:/Users/user/OneDrive/Documents/Bouchon inox .step',
/* time_stamp */ '2021-05-06T19:35:20+01:00',
/* author */ (''),
/* organization */ (''),
/* preprocessor_version */ 'ST-DEVELOPER v18.1',
/* originating_system */ 'Autodesk Translation Framework v10.6.0.1341',

/* authorisation */ '');

FILE_SCHEMA (('AUTOMOTIVE_DESIGN { 1 0 10303 214 3 1 1 }'));
ENDSEC;

DATA;
#10=MECHANICAL_DESIGN_GEOMETRIC_PRESENTATION_REPRESENTATION('',(#13),#446);
#11=SHAPE_REPRESENTATION_RELATIONSHIP('SRR','None',#453,#12);
#12=ADVANCED_BREP_SHAPE_REPRESENTATION('',(#14),#445);
#13=STYLED_ITEM('',(#462),#14);
#14=MANIFOLD_SOLID_BREP('Corps5',#242);
#15=LINE('',#386,#24);
#16=LINE('',#395,#25);
#17=LINE('',#401,#26);
#18=LINE('',#409,#27);
#19=LINE('',#416,#28);
#20=LINE('',#423,#29);
#21=LINE('',#430,#30);
#22=LINE('',#437,#31);
#23=LINE('',#442,#32);
#24=VECTOR('',#303,21.0000003543165);
#25=VECTOR('',#316,10.0000000248353);
#26=VECTOR('',#323,20.0000000860956);
#27=VECTOR('',#334,26.400000089407);
#28=VECTOR('',#343,24.3500001663963);
#29=VECTOR('',#352,26.4000002268288);
#30=VECTOR('',#361,24.3500002872613);
#31=VECTOR('',#370,26.4000003476938);
#32=VECTOR('',#377,25.0000004139211);
#33=CYLINDRICAL_SURFACE('',#259,21.0000003543165);
#34=CYLINDRICAL_SURFACE('',#264,10.0000000248353);
#35=CYLINDRICAL_SURFACE('',#268,20.0000000860956);
#36=CYLINDRICAL_SURFACE('',#272,26.400000089407);
#37=CYLINDRICAL_SURFACE('',#276,24.3500001663963);
#38=CYLINDRICAL_SURFACE('',#280,26.4000002268288);
#39=CYLINDRICAL_SURFACE('',#284,24.3500002872613);
#40=CYLINDRICAL_SURFACE('',#288,26.4000003476938);
#41=CYLINDRICAL_SURFACE('',#292,25.0000004139211);
#42=FACE_BOUND('',#70,.T.);
#43=FACE_BOUND('',#76,.T.);
#44=FACE_BOUND('',#79,.T.);
#45=FACE_BOUND('',#82,.T.);
#46=FACE_BOUND('',#85,.T.);
#47=FACE_BOUND('',#88,.T.);
#48=FACE_BOUND('',#91,.T.);
#49=FACE_BOUND('',#94,.T.);
#50=FACE_OUTER_BOUND('',#69,.T.);
#51=FACE_OUTER_BOUND('',#71,.T.);
#52=FACE_OUTER_BOUND('',#72,.T.);
#53=FACE_OUTER_BOUND('',#73,.T.);
#54=FACE_OUTER_BOUND('',#74,.T.);
#55=FACE_OUTER_BOUND('',#75,.T.);
#56=FACE_OUTER_BOUND('',#77,.T.);
#57=FACE_OUTER_BOUND('',#78,.T.);
#58=FACE_OUTER_BOUND('',#80,.T.);
#59=FACE_OUTER_BOUND('',#81,.T.);
#60=FACE_OUTER_BOUND('',#83,.T.);
#61=FACE_OUTER_BOUND('',#84,.T.);
#62=FACE_OUTER_BOUND('',#86,.T.);
#63=FACE_OUTER_BOUND('',#87,.T.);
#64=FACE_OUTER_BOUND('',#89,.T.);
#65=FACE_OUTER_BOUND('',#90,.T.);
#66=FACE_OUTER_BOUND('',#92,.T.);
#67=FACE_OUTER_BOUND('',#93,.T.);
#68=FACE_OUTER_BOUND('',#95,.T.);
#69=EDGE_LOOP('',(#159));
#70=EDGE_LOOP('',(#160));
#71=EDGE_LOOP('',(#161,#162,#163,#164));
#72=EDGE_LOOP('',(#165));
#73=EDGE_LOOP('',(#166));
#74=EDGE_LOOP('',(#167,#168,#169,#170));
#75=EDGE_LOOP('',(#171));
#76=EDGE_LOOP('',(#172));
#77=EDGE_LOOP('',(#173,#174,#175,#176));
#78=EDGE_LOOP('',(#177));
#79=EDGE_LOOP('',(#178));
#80=EDGE_LOOP('',(#179,#180,#181,#182));
#81=EDGE_LOOP('',(#183));
#82=EDGE_LOOP('',(#184));
#83=EDGE_LOOP('',(#185,#186,#187,#188));
#84=EDGE_LOOP('',(#189));
#85=EDGE_LOOP('',(#190));
#86=EDGE_LOOP('',(#191,#192,#193,#194));
#87=EDGE_LOOP('',(#195));
#88=EDGE_LOOP('',(#196));
#89=EDGE_LOOP('',(#197,#198,#199,#200));
#90=EDGE_LOOP('',(#201));
#91=EDGE_LOOP('',(#202));
#92=EDGE_LOOP('',(#203,#204,#205,#206));
#93=EDGE_LOOP('',(#207));
#94=EDGE_LOOP('',(#208));
#95=EDGE_LOOP('',(#209,#210,#211,#212));
#96=CIRCLE('',#257,25.0000004553133);
#97=CIRCLE('',#258,21.0000003957086);
#98=CIRCLE('',#260,21.0000003129244);
#99=CIRCLE('',#263,10.);
#100=CIRCLE('',#265,10.0000000496705);
#101=CIRCLE('',#267,20.0000001986821);
#102=CIRCLE('',#269,19.999999973509);
#103=CIRCLE('',#271,26.4000000480148);
#104=CIRCLE('',#273,26.4000001307991);
#105=CIRCLE('',#275,24.3500001307991);
#106=CIRCLE('',#277,24.3500002019935);
#107=CIRCLE('',#279,26.4000002019935);
#108=CIRCLE('',#281,26.4000002516641);
#109=CIRCLE('',#283,24.350000251664);
#110=CIRCLE('',#285,24.3500003228585);
#111=CIRCLE('',#287,26.4000003228585);
#112=CIRCLE('',#289,26.400000372529);
#113=CIRCLE('',#291,25.000000372529);
#114=VERTEX_POINT('',#380);
#115=VERTEX_POINT('',#382);
#116=VERTEX_POINT('',#385);
#117=VERTEX_POINT('',#390);
#118=VERTEX_POINT('',#393);
#119=VERTEX_POINT('',#397);
#120=VERTEX_POINT('',#400);
#121=VERTEX_POINT('',#404);
#122=VERTEX_POINT('',#407);
#123=VERTEX_POINT('',#411);
#124=VERTEX_POINT('',#414);
#125=VERTEX_POINT('',#418);
#126=VERTEX_POINT('',#421);
#127=VERTEX_POINT('',#425);
#128=VERTEX_POINT('',#428);
#129=VERTEX_POINT('',#432);
#130=VERTEX_POINT('',#435);
#131=VERTEX_POINT('',#439);
#132=EDGE_CURVE('',#114,#114,#96,.T.);
#133=EDGE_CURVE('',#115,#115,#97,.T.);
#134=EDGE_CURVE('',#115,#116,#15,.T.);
#135=EDGE_CURVE('',#116,#116,#98,.T.);
#136=EDGE_CURVE('',#117,#117,#99,.T.);
#137=EDGE_CURVE('',#118,#118,#100,.T.);
#138=EDGE_CURVE('',#118,#117,#16,.T.);
#139=EDGE_CURVE('',#119,#119,#101,.T.);
#140=EDGE_CURVE('',#119,#120,#17,.T.);
#141=EDGE_CURVE('',#120,#120,#102,.T.);
#142=EDGE_CURVE('',#121,#121,#103,.T.);
#143=EDGE_CURVE('',#122,#122,#104,.T.);
#144=EDGE_CURVE('',#122,#121,#18,.T.);
#145=EDGE_CURVE('',#123,#123,#105,.T.);
#146=EDGE_CURVE('',#124,#124,#106,.T.);
#147=EDGE_CURVE('',#124,#123,#19,.T.);
#148=EDGE_CURVE('',#125,#125,#107,.T.);
#149=EDGE_CURVE('',#126,#126,#108,.T.);
#150=EDGE_CURVE('',#126,#125,#20,.T.);
#151=EDGE_CURVE('',#127,#127,#109,.T.);
#152=EDGE_CURVE('',#128,#128,#110,.T.);
#153=EDGE_CURVE('',#128,#127,#21,.T.);
#154=EDGE_CURVE('',#129,#129,#111,.T.);
#155=EDGE_CURVE('',#130,#130,#112,.T.);
#156=EDGE_CURVE('',#130,#129,#22,.T.);
#157=EDGE_CURVE('',#131,#131,#113,.T.);
#158=EDGE_CURVE('',#114,#131,#23,.T.);
#159=ORIENTED_EDGE('',*,*,#132,.T.);
#160=ORIENTED_EDGE('',*,*,#133,.F.);
#161=ORIENTED_EDGE('',*,*,#133,.T.);
#162=ORIENTED_EDGE('',*,*,#134,.T.);
#163=ORIENTED_EDGE('',*,*,#135,.F.);
#164=ORIENTED_EDGE('',*,*,#134,.F.);
#165=ORIENTED_EDGE('',*,*,#135,.T.);
#166=ORIENTED_EDGE('',*,*,#136,.F.);
#167=ORIENTED_EDGE('',*,*,#137,.F.);
#168=ORIENTED_EDGE('',*,*,#138,.T.);
#169=ORIENTED_EDGE('',*,*,#136,.T.);
#170=ORIENTED_EDGE('',*,*,#138,.F.);
#171=ORIENTED_EDGE('',*,*,#139,.F.);
#172=ORIENTED_EDGE('',*,*,#137,.T.);
#173=ORIENTED_EDGE('',*,*,#139,.T.);
#174=ORIENTED_EDGE('',*,*,#140,.T.);
#175=ORIENTED_EDGE('',*,*,#141,.F.);
#176=ORIENTED_EDGE('',*,*,#140,.F.);
#177=ORIENTED_EDGE('',*,*,#142,.F.);
#178=ORIENTED_EDGE('',*,*,#141,.T.);
#179=ORIENTED_EDGE('',*,*,#143,.F.);
#180=ORIENTED_EDGE('',*,*,#144,.T.);
#181=ORIENTED_EDGE('',*,*,#142,.T.);
#182=ORIENTED_EDGE('',*,*,#144,.F.);
#183=ORIENTED_EDGE('',*,*,#143,.T.);
#184=ORIENTED_EDGE('',*,*,#145,.F.);
#185=ORIENTED_EDGE('',*,*,#146,.F.);
#186=ORIENTED_EDGE('',*,*,#147,.T.);
#187=ORIENTED_EDGE('',*,*,#145,.T.);
#188=ORIENTED_EDGE('',*,*,#147,.F.);
#189=ORIENTED_EDGE('',*,*,#148,.F.);
#190=ORIENTED_EDGE('',*,*,#146,.T.);
#191=ORIENTED_EDGE('',*,*,#149,.F.);
#192=ORIENTED_EDGE('',*,*,#150,.T.);
#193=ORIENTED_EDGE('',*,*,#148,.T.);
#194=ORIENTED_EDGE('',*,*,#150,.F.);
#195=ORIENTED_EDGE('',*,*,#149,.T.);
#196=ORIENTED_EDGE('',*,*,#151,.F.);
#197=ORIENTED_EDGE('',*,*,#152,.F.);
#198=ORIENTED_EDGE('',*,*,#153,.T.);
#199=ORIENTED_EDGE('',*,*,#151,.T.);
#200=ORIENTED_EDGE('',*,*,#153,.F.);
#201=ORIENTED_EDGE('',*,*,#154,.F.);
#202=ORIENTED_EDGE('',*,*,#152,.T.);
#203=ORIENTED_EDGE('',*,*,#155,.F.);
#204=ORIENTED_EDGE('',*,*,#156,.T.);
#205=ORIENTED_EDGE('',*,*,#154,.T.);
#206=ORIENTED_EDGE('',*,*,#156,.F.);
#207=ORIENTED_EDGE('',*,*,#155,.T.);
#208=ORIENTED_EDGE('',*,*,#157,.F.);
#209=ORIENTED_EDGE('',*,*,#132,.F.);
#210=ORIENTED_EDGE('',*,*,#158,.T.);
#211=ORIENTED_EDGE('',*,*,#157,.T.);
#212=ORIENTED_EDGE('',*,*,#158,.F.);
#213=PLANE('',#256);
#214=PLANE('',#261);
#215=PLANE('',#262);
#216=PLANE('',#266);
#217=PLANE('',#270);
#218=PLANE('',#274);
#219=PLANE('',#278);
#220=PLANE('',#282);
#221=PLANE('',#286);
#222=PLANE('',#290);
#223=ADVANCED_FACE('',(#50,#42),#213,.T.);
#224=ADVANCED_FACE('',(#51),#33,.F.);
#225=ADVANCED_FACE('',(#52),#214,.T.);
#226=ADVANCED_FACE('',(#53),#215,.T.);
#227=ADVANCED_FACE('',(#54),#34,.T.);
#228=ADVANCED_FACE('',(#55,#43),#216,.T.);
#229=ADVANCED_FACE('',(#56),#35,.F.);
#230=ADVANCED_FACE('',(#57,#44),#217,.T.);
#231=ADVANCED_FACE('',(#58),#36,.T.);
#232=ADVANCED_FACE('',(#59,#45),#218,.T.);
#233=ADVANCED_FACE('',(#60),#37,.T.);
#234=ADVANCED_FACE('',(#61,#46),#219,.T.);
#235=ADVANCED_FACE('',(#62),#38,.T.);
#236=ADVANCED_FACE('',(#63,#47),#220,.T.);
#237=ADVANCED_FACE('',(#64),#39,.T.);
#238=ADVANCED_FACE('',(#65,#48),#221,.T.);
#239=ADVANCED_FACE('',(#66),#40,.T.);
#240=ADVANCED_FACE('',(#67,#49),#222,.T.);
#241=ADVANCED_FACE('',(#68),#41,.T.);
#242=CLOSED_SHELL('',(#223,#224,#225,#226,#227,#228,#229,#230,#231,#232,
#233,#234,#235,#236,#237,#238,#239,#240,#241));
#243=DERIVED_UNIT_ELEMENT(#245,1.);
#244=DERIVED_UNIT_ELEMENT(#448,-3.);
#245=(
MASS_UNIT()
NAMED_UNIT(*)
SI_UNIT(.KILO.,.GRAM.)
);
#246=DERIVED_UNIT((#243,#244));
#247=MEASURE_REPRESENTATION_ITEM('density measure',
POSITIVE_RATIO_MEASURE(7850.),#246);
#248=PROPERTY_DEFINITION_REPRESENTATION(#253,#250);
#249=PROPERTY_DEFINITION_REPRESENTATION(#254,#251);
#250=REPRESENTATION('material name',(#252),#445);
#251=REPRESENTATION('density',(#247),#445);
#252=DESCRIPTIVE_REPRESENTATION_ITEM('Acier','Acier');
#253=PROPERTY_DEFINITION('material property','material name',#455);
#254=PROPERTY_DEFINITION('material property','density of part',#455);
#255=AXIS2_PLACEMENT_3D('placement',#378,#293,#294);
#256=AXIS2_PLACEMENT_3D('',#379,#295,#296);
#257=AXIS2_PLACEMENT_3D('',#381,#297,#298);
#258=AXIS2_PLACEMENT_3D('',#383,#299,#300);
#259=AXIS2_PLACEMENT_3D('',#384,#301,#302);
#260=AXIS2_PLACEMENT_3D('',#387,#304,#305);
#261=AXIS2_PLACEMENT_3D('',#388,#306,#307);
#262=AXIS2_PLACEMENT_3D('',#389,#308,#309);
#263=AXIS2_PLACEMENT_3D('',#391,#310,#311);
#264=AXIS2_PLACEMENT_3D('',#392,#312,#313);
#265=AXIS2_PLACEMENT_3D('',#394,#314,#315);
#266=AXIS2_PLACEMENT_3D('',#396,#317,#318);
#267=AXIS2_PLACEMENT_3D('',#398,#319,#320);
#268=AXIS2_PLACEMENT_3D('',#399,#321,#322);
#269=AXIS2_PLACEMENT_3D('',#402,#324,#325);
#270=AXIS2_PLACEMENT_3D('',#403,#326,#327);
#271=AXIS2_PLACEMENT_3D('',#405,#328,#329);
#272=AXIS2_PLACEMENT_3D('',#406,#330,#331);
#273=AXIS2_PLACEMENT_3D('',#408,#332,#333);
#274=AXIS2_PLACEMENT_3D('',#410,#335,#336);
#275=AXIS2_PLACEMENT_3D('',#412,#337,#338);
#276=AXIS2_PLACEMENT_3D('',#413,#339,#340);
#277=AXIS2_PLACEMENT_3D('',#415,#341,#342);
#278=AXIS2_PLACEMENT_3D('',#417,#344,#345);
#279=AXIS2_PLACEMENT_3D('',#419,#346,#347);
#280=AXIS2_PLACEMENT_3D('',#420,#348,#349);
#281=AXIS2_PLACEMENT_3D('',#422,#350,#351);
#282=AXIS2_PLACEMENT_3D('',#424,#353,#354);
#283=AXIS2_PLACEMENT_3D('',#426,#355,#356);
#284=AXIS2_PLACEMENT_3D('',#427,#357,#358);
#285=AXIS2_PLACEMENT_3D('',#429,#359,#360);
#286=AXIS2_PLACEMENT_3D('',#431,#362,#363);
#287=AXIS2_PLACEMENT_3D('',#433,#364,#365);
#288=AXIS2_PLACEMENT_3D('',#434,#366,#367);
#289=AXIS2_PLACEMENT_3D('',#436,#368,#369);
#290=AXIS2_PLACEMENT_3D('',#438,#371,#372);
#291=AXIS2_PLACEMENT_3D('',#440,#373,#374);
#292=AXIS2_PLACEMENT_3D('',#441,#375,#376);
#293=DIRECTION('axis',(0.,0.,1.));
#294=DIRECTION('refdir',(1.,0.,0.));
#295=DIRECTION('center_axis',(1.,-1.65568460477707E-8,0.));
#296=DIRECTION('ref_axis',(0.,0.,-1.));
#297=DIRECTION('center_axis',(1.,-1.65568460477707E-8,0.));
#298=DIRECTION('ref_axis',(1.65568460477707E-8,1.,0.));
#299=DIRECTION('center_axis',(1.,-1.65568460477707E-8,0.));
#300=DIRECTION('ref_axis',(1.65568460477707E-8,1.,0.));
#301=DIRECTION('center_axis',(1.,-1.65568460477707E-8,0.));
#302=DIRECTION('ref_axis',(1.65568460606603E-8,1.,0.));
#303=DIRECTION('',(-1.,1.65568460477707E-8,0.));
#304=DIRECTION('center_axis',(1.,-1.65568460477707E-8,0.));
#305=DIRECTION('ref_axis',(1.65568460477707E-8,1.,0.));
#306=DIRECTION('center_axis',(1.,-1.65568460477707E-8,0.));
#307=DIRECTION('ref_axis',(0.,0.,-1.));
#308=DIRECTION('center_axis',(-1.,1.65568460477707E-8,0.));
#309=DIRECTION('ref_axis',(0.,0.,1.));
#310=DIRECTION('center_axis',(1.,-1.65568460477707E-8,0.));
#311=DIRECTION('ref_axis',(1.65568460477707E-8,1.,0.));
#312=DIRECTION('center_axis',(1.,-1.65568460477707E-8,0.));
#313=DIRECTION('ref_axis',(1.65568460606603E-8,1.,0.));
#314=DIRECTION('center_axis',(1.,-1.65568460477707E-8,0.));
#315=DIRECTION('ref_axis',(1.65568460477707E-8,1.,0.));
#316=DIRECTION('',(-1.,1.65568460477707E-8,0.));
#317=DIRECTION('center_axis',(-1.,1.65568460477707E-8,0.));
#318=DIRECTION('ref_axis',(0.,0.,1.));
#319=DIRECTION('center_axis',(1.,-1.65568460477707E-8,0.));
#320=DIRECTION('ref_axis',(1.65568460477707E-8,1.,0.));
#321=DIRECTION('center_axis',(1.,-1.65568460477707E-8,0.));
#322=DIRECTION('ref_axis',(1.65568460606603E-8,1.,0.));
#323=DIRECTION('',(-1.,1.65568460477707E-8,0.));
#324=DIRECTION('center_axis',(1.,-1.65568460477707E-8,0.));
#325=DIRECTION('ref_axis',(1.65568460477707E-8,1.,0.));
#326=DIRECTION('center_axis',(-1.,1.65568460477707E-8,0.));
#327=DIRECTION('ref_axis',(0.,0.,1.));
#328=DIRECTION('center_axis',(1.,-1.65568460477707E-8,0.));
#329=DIRECTION('ref_axis',(1.65568460477707E-8,1.,0.));
#330=DIRECTION('center_axis',(1.,-1.65568460477707E-8,0.));
#331=DIRECTION('ref_axis',(1.65568460606603E-8,1.,0.));
#332=DIRECTION('center_axis',(1.,-1.65568460477707E-8,0.));
#333=DIRECTION('ref_axis',(1.65568460477707E-8,1.,0.));
#334=DIRECTION('',(-1.,1.65568460477707E-8,0.));
#335=DIRECTION('center_axis',(1.,-1.65568460477707E-8,0.));
#336=DIRECTION('ref_axis',(0.,0.,-1.));
#337=DIRECTION('center_axis',(1.,-1.65568460477707E-8,0.));
#338=DIRECTION('ref_axis',(1.65568460477707E-8,1.,0.));
#339=DIRECTION('center_axis',(1.,-1.65568460477707E-8,0.));
#340=DIRECTION('ref_axis',(1.65568460606603E-8,1.,0.));
#341=DIRECTION('center_axis',(1.,-1.65568460477707E-8,0.));
#342=DIRECTION('ref_axis',(1.65568460477707E-8,1.,0.));
#343=DIRECTION('',(-1.,1.65568460477707E-8,0.));
#344=DIRECTION('center_axis',(-1.,1.65568460477707E-8,0.));
#345=DIRECTION('ref_axis',(0.,0.,1.));
#346=DIRECTION('center_axis',(1.,-1.65568460477707E-8,0.));
#347=DIRECTION('ref_axis',(1.65568460477707E-8,1.,0.));
#348=DIRECTION('center_axis',(1.,-1.65568460477707E-8,0.));
#349=DIRECTION('ref_axis',(1.65568460606603E-8,1.,0.));
#350=DIRECTION('center_axis',(1.,-1.65568460477707E-8,0.));
#351=DIRECTION('ref_axis',(1.65568460477707E-8,1.,0.));
#352=DIRECTION('',(-1.,1.65568460477707E-8,0.));
#353=DIRECTION('center_axis',(1.,-1.65568460477707E-8,0.));
#354=DIRECTION('ref_axis',(0.,0.,-1.));
#355=DIRECTION('center_axis',(1.,-1.65568460477707E-8,0.));
#356=DIRECTION('ref_axis',(1.65568460477707E-8,1.,0.));
#357=DIRECTION('center_axis',(1.,-1.65568460477707E-8,0.));
#358=DIRECTION('ref_axis',(1.65568460606603E-8,1.,0.));
#359=DIRECTION('center_axis',(1.,-1.65568460477707E-8,0.));
#360=DIRECTION('ref_axis',(1.65568460477707E-8,1.,0.));
#361=DIRECTION('',(-1.,1.65568460477707E-8,0.));
#362=DIRECTION('center_axis',(-1.,1.65568460477707E-8,0.));
#363=DIRECTION('ref_axis',(0.,0.,1.));
#364=DIRECTION('center_axis',(1.,-1.65568460477707E-8,0.));
#365=DIRECTION('ref_axis',(1.65568460477707E-8,1.,0.));
#366=DIRECTION('center_axis',(1.,-1.65568460477707E-8,0.));
#367=DIRECTION('ref_axis',(1.65568460606603E-8,1.,0.));
#368=DIRECTION('center_axis',(1.,-1.65568460477707E-8,0.));
#369=DIRECTION('ref_axis',(1.65568460477707E-8,1.,0.));
#370=DIRECTION('',(-1.,1.65568460477707E-8,0.));
#371=DIRECTION('center_axis',(1.,-1.65568460477707E-8,0.));
#372=DIRECTION('ref_axis',(0.,0.,-1.));
#373=DIRECTION('center_axis',(1.,-1.65568460477707E-8,0.));
#374=DIRECTION('ref_axis',(1.65568460477707E-8,1.,0.));
#375=DIRECTION('center_axis',(1.,-1.65568460477707E-8,0.));
#376=DIRECTION('ref_axis',(1.65568460606603E-8,1.,0.));
#377=DIRECTION('',(-1.,1.65568460477707E-8,0.));
#378=CARTESIAN_POINT('',(0.,0.,0.));
#379=CARTESIAN_POINT('Origin',(-310.00000461936,21.0000003129244,0.));
#380=CARTESIAN_POINT('',(-310.000005447202,-25.0000004967054,-3.0616170485591E-15));
#381=CARTESIAN_POINT('Origin',(-310.000005033281,-8.27842278407422E-8,0.));
#382=CARTESIAN_POINT('',(-310.000005314748,-21.0000004371007,-2.5717583216007E-15));
#383=CARTESIAN_POINT('Origin',(-310.000004967054,-8.27842289372589E-8,0.));
#384=CARTESIAN_POINT('Origin',(-312.500005004307,-4.13921132010415E-8,0.));
#385=CARTESIAN_POINT('',(-315.000005389253,-21.0000003543165,-2.5717583216007E-15));
#386=CARTESIAN_POINT('',(-312.500005352,-21.0000003957086,-2.5717583216007E-15));
#387=CARTESIAN_POINT('Origin',(-315.00000504156,2.53517596387923E-15,0.));
#388=CARTESIAN_POINT('Origin',(-315.000004693866,0.,0.));
#389=CARTESIAN_POINT('Origin',(-324.000004783273,10.0000001490116,0.));
#390=CARTESIAN_POINT('',(-324.00000511441,-9.99999987582365,-1.2246468021888E-15));
#391=CARTESIAN_POINT('Origin',(-324.000004948841,1.49011615429989E-7,0.));
#392=CARTESIAN_POINT('Origin',(-322.500004948841,1.24176346358333E-7,0.));
#393=CARTESIAN_POINT('',(-321.00000511441,-9.99999992549419,-1.2246468021888E-15));
#394=CARTESIAN_POINT('Origin',(-321.000004948841,9.93410772866771E-8,0.));
#395=CARTESIAN_POINT('',(-322.50000511441,-9.99999990065892,-1.2246468021888E-15));
#396=CARTESIAN_POINT('Origin',(-321.000004783273,20.0000002980232,0.));
#397=CARTESIAN_POINT('',(-321.000005445547,-19.9999999867545,-2.44929360883838E-15));
#398=CARTESIAN_POINT('Origin',(-321.00000511441,9.93410800279686E-8,0.));
#399=CARTESIAN_POINT('Origin',(-327.800005092058,2.11927632782735E-7,0.));
#400=CARTESIAN_POINT('',(-334.600005400843,-19.9999997615814,-2.44929360883838E-15));
#401=CARTESIAN_POINT('',(-327.800005423195,-19.999999874168,-2.44929360883838E-15));
#402=CARTESIAN_POINT('Origin',(-334.600005069706,3.24514185537501E-7,0.));
#403=CARTESIAN_POINT('Origin',(-334.600004738569,26.400000372529,0.));
#404=CARTESIAN_POINT('',(-334.600005612771,-26.3999997648928,-3.23306756069821E-15));
#405=CARTESIAN_POINT('Origin',(-334.60000517567,3.24514187291928E-7,0.));
#406=CARTESIAN_POINT('Origin',(-332.10000517567,2.83122072172501E-7,0.));
#407=CARTESIAN_POINT('',(-329.600005612771,-26.399999847677,-3.23306756069821E-15));
#408=CARTESIAN_POINT('Origin',(-329.60000517567,2.41729957053074E-7,0.));
#409=CARTESIAN_POINT('',(-332.100005612771,-26.3999998062849,-3.23306756069821E-15));
#410=CARTESIAN_POINT('Origin',(-329.600004738569,24.350000372529,0.));
#411=CARTESIAN_POINT('',(-329.600005544888,-24.3499999246663,-2.98201497630147E-15));
#412=CARTESIAN_POINT('Origin',(-329.600005141728,2.41729956491109E-7,0.));
#413=CARTESIAN_POINT('Origin',(-327.450005141728,2.06132737488402E-7,0.));
#414=CARTESIAN_POINT('',(-325.300005544888,-24.3499999958608,-2.98201497630147E-15));
#415=CARTESIAN_POINT('Origin',(-325.300005141728,1.70535518485695E-7,0.));
#416=CARTESIAN_POINT('',(-327.450005544888,-24.3499999602636,-2.98201497630147E-15));
#417=CARTESIAN_POINT('Origin',(-325.300004738569,26.400000372529,0.));
#418=CARTESIAN_POINT('',(-325.300005612771,-26.4000000562933,-3.23306757752753E-15));
#419=CARTESIAN_POINT('Origin',(-325.30000517567,1.7053551904766E-7,0.));
#420=CARTESIAN_POINT('Origin',(-323.80000517567,1.45700249976004E-7,0.));
#421=CARTESIAN_POINT('',(-322.300005612771,-26.4000001059638,-3.23306757752753E-15));
#422=CARTESIAN_POINT('Origin',(-322.30000517567,1.20864980904348E-7,0.));
#423=CARTESIAN_POINT('',(-323.800005612771,-26.4000000811285,-3.23306757752753E-15));
#424=CARTESIAN_POINT('Origin',(-322.300004738569,24.350000372529,0.));
#425=CARTESIAN_POINT('',(-322.300005544888,-24.3500001663963,-2.98201499110316E-15));
#426=CARTESIAN_POINT('Origin',(-322.300005141728,1.20864980342384E-7,0.));
#427=CARTESIAN_POINT('Origin',(-320.150005141728,8.52677613396772E-8,0.));
#428=CARTESIAN_POINT('',(-318.000005544888,-24.3500002375907,-2.98201499110316E-15));
#429=CARTESIAN_POINT('Origin',(-318.000005141728,4.96705423369695E-8,0.));
#430=CARTESIAN_POINT('',(-320.150005544888,-24.3500002019935,-2.98201499110316E-15));
#431=CARTESIAN_POINT('Origin',(-318.000004738569,26.400000372529,0.));
#432=CARTESIAN_POINT('',(-318.000005612771,-26.4000002980232,-3.23306759232922E-15));
#433=CARTESIAN_POINT('Origin',(-318.00000517567,4.96705428989343E-8,0.));
#434=CARTESIAN_POINT('Origin',(-316.500005153318,2.48352734572038E-8,0.));
#435=CARTESIAN_POINT('',(-315.000005568067,-26.4000003476938,-3.23306759232922E-15));
#436=CARTESIAN_POINT('Origin',(-315.000005130967,4.01547339897782E-15,0.));
#437=CARTESIAN_POINT('',(-316.500005590419,-26.4000003228585,-3.23306759232922E-15));
#438=CARTESIAN_POINT('Origin',(-315.000004693866,25.000000372529,0.));
#439=CARTESIAN_POINT('',(-315.000005521708,-25.0000004139211,-3.0616170485591E-15));
#440=CARTESIAN_POINT('Origin',(-315.000005107787,3.63169258093896E-15,0.));
#441=CARTESIAN_POINT('Origin',(-312.500005070534,-4.13921121045248E-8,0.));
#442=CARTESIAN_POINT('',(-312.500005484455,-25.0000004553133,-3.0616170485591E-15));
#443=UNCERTAINTY_MEASURE_WITH_UNIT(LENGTH_MEASURE(0.01),#447,
'DISTANCE_ACCURACY_VALUE',
'Maximum model space distance between geometric entities at asserted c
onnectivities');
#444=UNCERTAINTY_MEASURE_WITH_UNIT(LENGTH_MEASURE(0.01),#447,
'DISTANCE_ACCURACY_VALUE',
'Maximum model space distance between geometric entities at asserted c
onnectivities');
#445=(
GEOMETRIC_REPRESENTATION_CONTEXT(3)
GLOBAL_UNCERTAINTY_ASSIGNED_CONTEXT((#443))
GLOBAL_UNIT_ASSIGNED_CONTEXT((#447,#449,#450))
REPRESENTATION_CONTEXT('','3D')
);
#446=(
GEOMETRIC_REPRESENTATION_CONTEXT(3)
GLOBAL_UNCERTAINTY_ASSIGNED_CONTEXT((#444))
GLOBAL_UNIT_ASSIGNED_CONTEXT((#447,#449,#450))
REPRESENTATION_CONTEXT('','3D')
);
#447=(
LENGTH_UNIT()
NAMED_UNIT(*)
SI_UNIT(.MILLI.,.METRE.)
);
#448=(
LENGTH_UNIT()
NAMED_UNIT(*)
SI_UNIT($,.METRE.)
);
#449=(
NAMED_UNIT(*)
PLANE_ANGLE_UNIT()
SI_UNIT($,.RADIAN.)
);
#450=(
NAMED_UNIT(*)
SI_UNIT($,.STERADIAN.)
SOLID_ANGLE_UNIT()
);
#451=SHAPE_DEFINITION_REPRESENTATION(#452,#453);
#452=PRODUCT_DEFINITION_SHAPE('',$,#455);
#453=SHAPE_REPRESENTATION('',(#255),#445);
#454=PRODUCT_DEFINITION_CONTEXT('part definition',#459,'design');
#455=PRODUCT_DEFINITION('(Non enregistr\X\E9)','(Non enregistr\X\E9)',#456,
#454);
#456=PRODUCT_DEFINITION_FORMATION('',$,#461);
#457=PRODUCT_RELATED_PRODUCT_CATEGORY('(Non enregistr\X\E9)',
'(Non enregistr\X\E9)',(#461));
#458=APPLICATION_PROTOCOL_DEFINITION('international standard',
'automotive_design',2009,#459);
#459=APPLICATION_CONTEXT(
'Core Data for Automotive Mechanical Design Process');
#460=PRODUCT_CONTEXT('part definition',#459,'mechanical');
#461=PRODUCT('(Non enregistr\X\E9)','(Non enregistr\X\E9)',$,(#460));
#462=PRESENTATION_STYLE_ASSIGNMENT((#463));
#463=SURFACE_STYLE_USAGE(.BOTH.,#464);
#464=SURFACE_SIDE_STYLE('',(#465));
#465=SURFACE_STYLE_FILL_AREA(#466);
#466=FILL_AREA_STYLE('Acier - Satin\X\E9',(#467));
#467=FILL_AREA_STYLE_COLOUR('Acier - Satin\X\E9',#468);
#468=COLOUR_RGB('Acier - Satin\X\E9',0.627450980392157,0.627450980392157,
0.627450980392157);
ENDSEC;
END-ISO-10303-21;
