ISO-10303-21;
HEADER;
FILE_DESCRIPTION (( 'STEP AP214' ),
    '1' );
FILE_NAME ('Bouchon vissé Bague Montage.STEP',
    '2021-05-24T08:25:01',
    ( '' ),
    ( '' ),
    'SwSTEP 2.0',
    'SolidWorks 2018',
    '' );
FILE_SCHEMA (( 'AUTOMOTIVE_DESIGN' ));
ENDSEC;

DATA;
#1 =( GEOMETRIC_REPRESENTATION_CONTEXT ( 3 ) GLOBAL_UNCERTAINTY_ASSIGNED_CONTEXT ( ( #242 ) ) GLOBAL_UNIT_ASSIGNED_CONTEXT ( ( #124, #144, #198 ) ) REPRESENTATION_CONTEXT ( 'NONE', 'WORKASPACE' ) );
#2 = ORIENTED_EDGE ( 'NONE', *, *, #93, .F. ) ;
#3 = CARTESIAN_POINT ( 'NONE',  ( -43.00000000000000000, 0.000000000000000000, 20.00000000000000000 ) ) ;
#4 = AXIS2_PLACEMENT_3D ( 'NONE', #98, #7, #49 ) ;
#5 = ORIENTED_EDGE ( 'NONE', *, *, #134, .F. ) ;
#6 = DIRECTION ( 'NONE',  ( -0.000000000000000000, -0.000000000000000000, -1.000000000000000000 ) ) ;
#7 = DIRECTION ( 'NONE',  ( 0.000000000000000000, 0.000000000000000000, 1.000000000000000000 ) ) ;
#8 = AXIS2_PLACEMENT_3D ( 'NONE', #11, #218, #83 ) ;
#9 = CARTESIAN_POINT ( 'NONE',  ( 0.000000000000000000, 42.25000000000000000, 20.00000000000000000 ) ) ;
#10 = DIRECTION ( 'NONE',  ( 1.000000000000000000, 0.000000000000000000, 0.000000000000000000 ) ) ;
#11 = CARTESIAN_POINT ( 'NONE',  ( 0.000000000000000000, 0.000000000000000000, 0.000000000000000000 ) ) ;
#12 = VECTOR ( 'NONE', #299, 1000.000000000000000 ) ;
#13 = EDGE_CURVE ( 'NONE', #297, #66, #190, .T. ) ;
#14 = CONICAL_SURFACE ( 'NONE', #315, 42.25000000000000000, 0.7853981633974491672 ) ;
#15 = APPLICATION_PROTOCOL_DEFINITION ( 'draft international standard', 'automotive_design', 1998, #138 ) ;
#16 = DIRECTION ( 'NONE',  ( -0.000000000000000000, -0.000000000000000000, -1.000000000000000000 ) ) ;
#17 = LINE ( 'NONE', #263, #179 ) ;
#18 = AXIS2_PLACEMENT_3D ( 'NONE', #103, #82, #59 ) ;
#19 = DIRECTION ( 'NONE',  ( -0.000000000000000000, -0.000000000000000000, -1.000000000000000000 ) ) ;
#20 = DIRECTION ( 'NONE',  ( -1.000000000000000000, 0.000000000000000000, 0.000000000000000000 ) ) ;
#21 = ORIENTED_EDGE ( 'NONE', *, *, #151, .F. ) ;
#22 = ORIENTED_EDGE ( 'NONE', *, *, #221, .T. ) ;
#23 = AXIS2_PLACEMENT_3D ( 'NONE', #278, #97, #74 ) ;
#24 = DIRECTION ( 'NONE',  ( -0.000000000000000000, -0.000000000000000000, -1.000000000000000000 ) ) ;
#25 = CARTESIAN_POINT ( 'NONE',  ( 43.00000000000000000, 5.265981236333618470E-15, -3.000000000000005329 ) ) ;
#26 = CARTESIAN_POINT ( 'NONE',  ( -40.99999999999999289, 5.021051876504148174E-15, -2.999999999999998668 ) ) ;
#27 = AXIS2_PLACEMENT_3D ( 'NONE', #303, #146, #201 ) ;
#28 = CONICAL_SURFACE ( 'NONE', #4, 40.99999999999999289, 0.7853981633974488341 ) ;
#29 = ORIENTED_EDGE ( 'NONE', *, *, #312, .T. ) ;
#30 = DIRECTION ( 'NONE',  ( 0.000000000000000000, 0.000000000000000000, 1.000000000000000000 ) ) ;
#31 = CARTESIAN_POINT ( 'NONE',  ( 40.99999999999999289, 0.000000000000000000, -2.999999999999998668 ) ) ;
#32 = EDGE_CURVE ( 'NONE', #172, #150, #161, .T. ) ;
#33 = ADVANCED_FACE ( 'NONE', ( #121 ), #14, .F. ) ;
#34 = EDGE_LOOP ( 'NONE', ( #165, #87, #241, #310 ) ) ;
#35 = DIRECTION ( 'NONE',  ( -0.7071067811865482389, 8.659560562354941486E-17, 0.7071067811865469066 ) ) ;
#36 = AXIS2_PLACEMENT_3D ( 'NONE', #79, #285, #55 ) ;
#37 = DIRECTION ( 'NONE',  ( -0.000000000000000000, -0.000000000000000000, -1.000000000000000000 ) ) ;
#38 = CIRCLE ( 'NONE', #249, 40.25000000000000000 ) ;
#39 = ORIENTED_EDGE ( 'NONE', *, *, #137, .T. ) ;
#40 = CARTESIAN_POINT ( 'NONE',  ( 0.000000000000000000, 0.000000000000000000, -2.999999999999998668 ) ) ;
#41 = ORIENTED_EDGE ( 'NONE', *, *, #279, .F. ) ;
#42 = CIRCLE ( 'NONE', #224, 43.00000000000000000 ) ;
#43 = EDGE_LOOP ( 'NONE', ( #212, #290, #22, #2 ) ) ;
#44 = EDGE_LOOP ( 'NONE', ( #5, #170, #58, #86 ) ) ;
#45 = STYLED_ITEM ( 'NONE', ( #91 ), #125 ) ;
#46 = CARTESIAN_POINT ( 'NONE',  ( 0.000000000000000000, 0.000000000000000000, 20.00000000000000000 ) ) ;
#47 = PRESENTATION_STYLE_ASSIGNMENT (( #213 ) ) ;
#48 = ORIENTED_EDGE ( 'NONE', *, *, #168, .F. ) ;
#49 = DIRECTION ( 'NONE',  ( 1.000000000000000000, 0.000000000000000000, 0.000000000000000000 ) ) ;
#50 = CARTESIAN_POINT ( 'NONE',  ( 0.000000000000000000, 0.000000000000000000, 0.000000000000000000 ) ) ;
#51 = AXIS2_PLACEMENT_3D ( 'NONE', #236, #206, #106 ) ;
#52 = CYLINDRICAL_SURFACE ( 'NONE', #163, 43.00000000000000000 ) ;
#53 = SURFACE_SIDE_STYLE ('',( #71 ) ) ;
#54 = ORIENTED_EDGE ( 'NONE', *, *, #140, .T. ) ;
#55 = DIRECTION ( 'NONE',  ( -1.000000000000000000, 0.000000000000000000, 0.000000000000000000 ) ) ;
#56 = CARTESIAN_POINT ( 'NONE',  ( 40.25000000000000000, 4.929203366568096813E-15, -3.000000000000005329 ) ) ;
#57 = ORIENTED_EDGE ( 'NONE', *, *, #318, .T. ) ;
#58 = ORIENTED_EDGE ( 'NONE', *, *, #167, .T. ) ;
#59 = DIRECTION ( 'NONE',  ( -1.000000000000000000, 0.000000000000000000, 0.000000000000000000 ) ) ;
#60 = ADVANCED_FACE ( 'NONE', ( #293 ), #281, .T. ) ;
#61 = CIRCLE ( 'NONE', #70, 43.00000000000000000 ) ;
#62 = CONICAL_SURFACE ( 'NONE', #27, 42.25000000000000000, 0.7853981633974491672 ) ;
#63 = ORIENTED_EDGE ( 'NONE', *, *, #254, .F. ) ;
#64 = AXIS2_PLACEMENT_3D ( 'NONE', #228, #6, #257 ) ;
#65 = VECTOR ( 'NONE', #147, 1000.000000000000000 ) ;
#66 = VERTEX_POINT ( 'NONE', #174 ) ;
#67 =( NAMED_UNIT ( * ) SI_UNIT ( $, .STERADIAN. ) SOLID_ANGLE_UNIT ( ) );
#68 = EDGE_LOOP ( 'NONE', ( #92, #234, #244, #63 ) ) ;
#69 = CIRCLE ( 'NONE', #51, 40.25000000000000000 ) ;
#70 = AXIS2_PLACEMENT_3D ( 'NONE', #262, #81, #308 ) ;
#71 = SURFACE_STYLE_FILL_AREA ( #149 ) ;
#72 = AXIS2_PLACEMENT_3D ( 'NONE', #298, #301, #226 ) ;
#73 = CARTESIAN_POINT ( 'NONE',  ( 0.000000000000000000, 0.000000000000000000, -3.000000000000005329 ) ) ;
#74 = DIRECTION ( 'NONE',  ( -1.000000000000000000, 0.000000000000000000, 0.000000000000000000 ) ) ;
#75 = FACE_OUTER_BOUND ( 'NONE', #43, .T. ) ;
#76 = CARTESIAN_POINT ( 'NONE',  ( 0.000000000000000000, 0.000000000000000000, -2.999999999999998668 ) ) ;
#77 = ADVANCED_FACE ( 'NONE', ( #129 ), #28, .T. ) ;
#78 = CIRCLE ( 'NONE', #36, 40.25000000000000000 ) ;
#79 = CARTESIAN_POINT ( 'NONE',  ( 0.000000000000000000, 0.000000000000000000, 18.00000000000000355 ) ) ;
#80 = ADVANCED_FACE ( 'NONE', ( #135 ), #62, .F. ) ;
#81 = DIRECTION ( 'NONE',  ( -0.000000000000000000, -0.000000000000000000, -1.000000000000000000 ) ) ;
#82 = DIRECTION ( 'NONE',  ( -0.000000000000000000, -0.000000000000000000, -1.000000000000000000 ) ) ;
#83 = DIRECTION ( 'NONE',  ( 1.000000000000000000, 0.000000000000000000, 0.000000000000000000 ) ) ;
#84 = VECTOR ( 'NONE', #313, 1000.000000000000000 ) ;
#85 = DIRECTION ( 'NONE',  ( -1.000000000000000000, 0.000000000000000000, 0.000000000000000000 ) ) ;
#86 = ORIENTED_EDGE ( 'NONE', *, *, #32, .T. ) ;
#87 = ORIENTED_EDGE ( 'NONE', *, *, #134, .T. ) ;
#88 =( LENGTH_UNIT ( ) NAMED_UNIT ( * ) SI_UNIT ( .MILLI., .METRE. ) );
#89 = PRESENTATION_LAYER_ASSIGNMENT (  '', '', ( #286 ) ) ;
#90 =( LENGTH_UNIT ( ) NAMED_UNIT ( * ) SI_UNIT ( .MILLI., .METRE. ) );
#91 = PRESENTATION_STYLE_ASSIGNMENT (( #176 ) ) ;
#92 = ORIENTED_EDGE ( 'NONE', *, *, #13, .T. ) ;
#93 = EDGE_CURVE ( 'NONE', #66, #187, #273, .T. ) ;
#94 = DIRECTION ( 'NONE',  ( -1.000000000000000000, 0.000000000000000000, 0.000000000000000000 ) ) ;
#95 = ORIENTED_EDGE ( 'NONE', *, *, #93, .T. ) ;
#96 = FILL_AREA_STYLE_COLOUR ( '', #100 ) ;
#97 = DIRECTION ( 'NONE',  ( -0.000000000000000000, -0.000000000000000000, -1.000000000000000000 ) ) ;
#98 = CARTESIAN_POINT ( 'NONE',  ( 0.000000000000000000, 0.000000000000000000, -2.999999999999998668 ) ) ;
#99 = ADVANCED_FACE ( 'NONE', ( #75 ), #205, .F. ) ;
#100 = COLOUR_RGB ( '',0.7921568627450980005, 0.8196078431372548767, 0.9333333333333333481 ) ;
#101 = ORIENTED_EDGE ( 'NONE', *, *, #270, .F. ) ;
#102 = DIRECTION ( 'NONE',  ( -1.000000000000000000, 0.000000000000000000, 0.000000000000000000 ) ) ;
#103 = CARTESIAN_POINT ( 'NONE',  ( 0.000000000000000000, 0.000000000000000000, -3.000000000000005329 ) ) ;
#104 = MECHANICAL_DESIGN_GEOMETRIC_PRESENTATION_REPRESENTATION (  '', ( #286 ), #156 ) ;
#105 = FACE_OUTER_BOUND ( 'NONE', #274, .T. ) ;
#106 = DIRECTION ( 'NONE',  ( -1.000000000000000000, 0.000000000000000000, 0.000000000000000000 ) ) ;
#107 = ORIENTED_EDGE ( 'NONE', *, *, #151, .T. ) ;
#108 = DIRECTION ( 'NONE',  ( -1.000000000000000000, 0.000000000000000000, 0.000000000000000000 ) ) ;
#109 = CARTESIAN_POINT ( 'NONE',  ( 0.000000000000000000, 40.99999999999999289, -3.000000000000001776 ) ) ;
#110 = CARTESIAN_POINT ( 'NONE',  ( 0.000000000000000000, 0.000000000000000000, 20.00000000000000000 ) ) ;
#111 = LINE ( 'NONE', #25, #211 ) ;
#112 = ORIENTED_EDGE ( 'NONE', *, *, #137, .F. ) ;
#113 =( NAMED_UNIT ( * ) SI_UNIT ( $, .STERADIAN. ) SOLID_ANGLE_UNIT ( ) );
#114 = DIRECTION ( 'NONE',  ( -1.000000000000000000, 0.000000000000000000, 0.000000000000000000 ) ) ;
#115 = FACE_OUTER_BOUND ( 'NONE', #266, .T. ) ;
#116 = EDGE_LOOP ( 'NONE', ( #101, #123, #95, #197 ) ) ;
#117 = DIRECTION ( 'NONE',  ( -1.000000000000000000, 0.000000000000000000, 0.000000000000000000 ) ) ;
#118 = AXIS2_PLACEMENT_3D ( 'NONE', #250, #246, #117 ) ;
#119 = ORIENTED_EDGE ( 'NONE', *, *, #245, .T. ) ;
#120 = LINE ( 'NONE', #56, #84 ) ;
#121 = FACE_OUTER_BOUND ( 'NONE', #68, .T. ) ;
#122 = CARTESIAN_POINT ( 'NONE',  ( -40.25000000000000000, 0.000000000000000000, -3.000000000000005329 ) ) ;
#123 = ORIENTED_EDGE ( 'NONE', *, *, #237, .F. ) ;
#124 =( LENGTH_UNIT ( ) NAMED_UNIT ( * ) SI_UNIT ( .MILLI., .METRE. ) );
#125 = MANIFOLD_SOLID_BREP ( 'Révolution1', #219 ) ;
#126 = CARTESIAN_POINT ( 'NONE',  ( -43.00000000000000000, 0.000000000000000000, -0.9999999999999991118 ) ) ;
#127 = AXIS2_PLACEMENT_3D ( 'NONE', #292, #19, #20 ) ;
#128 = CARTESIAN_POINT ( 'NONE',  ( -42.25000000000000000, 5.174132726397567109E-15, 20.00000000000000000 ) ) ;
#129 = FACE_OUTER_BOUND ( 'NONE', #34, .T. ) ;
#130 = DIRECTION ( 'NONE',  ( -0.000000000000000000, -0.000000000000000000, -1.000000000000000000 ) ) ;
#131 = CARTESIAN_POINT ( 'NONE',  ( 0.000000000000000000, 0.000000000000000000, -3.000000000000005329 ) ) ;
#132 = CARTESIAN_POINT ( 'NONE',  ( 43.00000000000000000, 5.265981236333618470E-15, -0.9999999999999991118 ) ) ;
#133 = CIRCLE ( 'NONE', #23, 43.00000000000000000 ) ;
#134 = EDGE_CURVE ( 'NONE', #157, #150, #193, .T. ) ;
#135 = FACE_OUTER_BOUND ( 'NONE', #231, .T. ) ;
#136 = VERTEX_POINT ( 'NONE', #275 ) ;
#137 = EDGE_CURVE ( 'NONE', #136, #172, #111, .T. ) ;
#138 = APPLICATION_CONTEXT ( 'automotive_design' ) ;
#139 = COLOUR_RGB ( '',0.7921568627450980005, 0.8196078431372548767, 0.9333333333333333481 ) ;
#140 = EDGE_CURVE ( 'NONE', #180, #305, #145, .T. ) ;
#141 = AXIS2_PLACEMENT_3D ( 'NONE', #110, #37, #114 ) ;
#142 = FACE_OUTER_BOUND ( 'NONE', #251, .T. ) ;
#143 = ORIENTED_EDGE ( 'NONE', *, *, #254, .T. ) ;
#144 =( NAMED_UNIT ( * ) PLANE_ANGLE_UNIT ( ) SI_UNIT ( $, .RADIAN. ) );
#145 = CIRCLE ( 'NONE', #64, 42.25000000000000000 ) ;
#146 = DIRECTION ( 'NONE',  ( 0.000000000000000000, 0.000000000000000000, 1.000000000000000000 ) ) ;
#147 = DIRECTION ( 'NONE',  ( -0.7071067811865479058, 8.659560562354937789E-17, 0.7071067811865471286 ) ) ;
#148 = EDGE_CURVE ( 'NONE', #294, #157, #276, .T. ) ;
#149 = FILL_AREA_STYLE ('',( #96 ) ) ;
#150 = VERTEX_POINT ( 'NONE', #126 ) ;
#151 = EDGE_CURVE ( 'NONE', #162, #136, #133, .T. ) ;
#152 = PLANE ( 'NONE',  #272 ) ;
#153 = EDGE_CURVE ( 'NONE', #187, #247, #38, .T. ) ;
#154 = CARTESIAN_POINT ( 'NONE',  ( 42.25000000000000000, 0.000000000000000000, 20.00000000000000000 ) ) ;
#155 = ORIENTED_EDGE ( 'NONE', *, *, #153, .F. ) ;
#156 =( GEOMETRIC_REPRESENTATION_CONTEXT ( 3 ) GLOBAL_UNCERTAINTY_ASSIGNED_CONTEXT ( ( #195 ) ) GLOBAL_UNIT_ASSIGNED_CONTEXT ( ( #88, #164, #113 ) ) REPRESENTATION_CONTEXT ( 'NONE', 'WORKASPACE' ) );
#157 = VERTEX_POINT ( 'NONE', #253 ) ;
#158 = DIRECTION ( 'NONE',  ( 0.000000000000000000, 0.000000000000000000, 1.000000000000000000 ) ) ;
#159 = ADVANCED_FACE ( 'NONE', ( #115 ), #230, .T. ) ;
#160 = CARTESIAN_POINT ( 'NONE',  ( 42.25000000000000000, 0.000000000000000000, 20.00000000000000000 ) ) ;
#161 = CIRCLE ( 'NONE', #127, 43.00000000000000000 ) ;
#162 = VERTEX_POINT ( 'NONE', #3 ) ;
#163 = AXIS2_PLACEMENT_3D ( 'NONE', #131, #261, #207 ) ;
#164 =( NAMED_UNIT ( * ) PLANE_ANGLE_UNIT ( ) SI_UNIT ( $, .RADIAN. ) );
#165 = ORIENTED_EDGE ( 'NONE', *, *, #312, .F. ) ;
#166 = EDGE_LOOP ( 'NONE', ( #107, #39, #267, #316 ) ) ;
#167 = EDGE_CURVE ( 'NONE', #294, #172, #319, .T. ) ;
#168 = EDGE_CURVE ( 'NONE', #66, #180, #17, .T. ) ;
#169 = CYLINDRICAL_SURFACE ( 'NONE', #18, 40.25000000000000000 ) ;
#170 = ORIENTED_EDGE ( 'NONE', *, *, #148, .F. ) ;
#171 = AXIS2_PLACEMENT_3D ( 'NONE', #73, #248, #94 ) ;
#172 = VERTEX_POINT ( 'NONE', #132 ) ;
#173 = PRODUCT_DEFINITION ( 'UNKNOWN', '', #192, #296 ) ;
#174 = CARTESIAN_POINT ( 'NONE',  ( -40.25000000000000000, 0.000000000000000000, 18.00000000000000355 ) ) ;
#175 = PRODUCT_DEFINITION_SHAPE ( 'NONE', 'NONE',  #173 ) ;
#176 = SURFACE_STYLE_USAGE ( .BOTH. , #53 ) ;
#177 = SURFACE_STYLE_FILL_AREA ( #243 ) ;
#178 = ADVANCED_FACE ( 'NONE', ( #256 ), #186, .T. ) ;
#179 = VECTOR ( 'NONE', #35, 999.9999999999998863 ) ;
#180 = VERTEX_POINT ( 'NONE', #128 ) ;
#181 = DIRECTION ( 'NONE',  ( -0.000000000000000000, -0.000000000000000000, -1.000000000000000000 ) ) ;
#182 = ADVANCED_FACE ( 'NONE', ( #223 ), #52, .T. ) ;
#183 = EDGE_LOOP ( 'NONE', ( #57, #54 ) ) ;
#184 = DIRECTION ( 'NONE',  ( -0.000000000000000000, 0.000000000000000000, -1.000000000000000000 ) ) ;
#185 = CARTESIAN_POINT ( 'NONE',  ( 40.25000000000000000, 4.929203366568096813E-15, 18.00000000000000355 ) ) ;
#186 = CONICAL_SURFACE ( 'NONE', #239, 40.99999999999999289, 0.7853981633974488341 ) ;
#187 = VERTEX_POINT ( 'NONE', #282 ) ;
#188 = APPLICATION_CONTEXT ( 'automotive_design' ) ;
#189 = SURFACE_SIDE_STYLE ('',( #177 ) ) ;
#190 = CIRCLE ( 'NONE', #118, 40.25000000000000000 ) ;
#191 = AXIS2_PLACEMENT_3D ( 'NONE', #109, #184, #283 ) ;
#192 = PRODUCT_DEFINITION_FORMATION_WITH_SPECIFIED_SOURCE ( 'ANY', '', #220, .NOT_KNOWN. ) ;
#193 = LINE ( 'NONE', #26, #65 ) ;
#194 = DIRECTION ( 'NONE',  ( 1.000000000000000000, 0.000000000000000000, 0.000000000000000000 ) ) ;
#195 = UNCERTAINTY_MEASURE_WITH_UNIT (LENGTH_MEASURE( 1.000000000000000082E-05 ), #88, 'distance_accuracy_value', 'NONE');
#196 = ORIENTED_EDGE ( 'NONE', *, *, #221, .F. ) ;
#197 = ORIENTED_EDGE ( 'NONE', *, *, #153, .T. ) ;
#198 =( NAMED_UNIT ( * ) SI_UNIT ( $, .STERADIAN. ) SOLID_ANGLE_UNIT ( ) );
#199 = CIRCLE ( 'NONE', #265, 40.99999999999999289 ) ;
#200 = CARTESIAN_POINT ( 'NONE',  ( 0.000000000000000000, 0.000000000000000000, -2.999999999999998668 ) ) ;
#201 = DIRECTION ( 'NONE',  ( 1.000000000000000000, 0.000000000000000000, 0.000000000000000000 ) ) ;
#202 = CARTESIAN_POINT ( 'NONE',  ( 40.99999999999999289, 0.000000000000000000, -2.999999999999998668 ) ) ;
#203 = ADVANCED_FACE ( 'NONE', ( #229 ), #169, .F. ) ;
#204 = DIRECTION ( 'NONE',  ( 0.7071067811865482389, 0.000000000000000000, 0.7071067811865469066 ) ) ;
#205 = CYLINDRICAL_SURFACE ( 'NONE', #72, 40.25000000000000000 ) ;
#206 = DIRECTION ( 'NONE',  ( -0.000000000000000000, -0.000000000000000000, -1.000000000000000000 ) ) ;
#207 = DIRECTION ( 'NONE',  ( -1.000000000000000000, 0.000000000000000000, 0.000000000000000000 ) ) ;
#208 = DIRECTION ( 'NONE',  ( -0.000000000000000000, -0.000000000000000000, -1.000000000000000000 ) ) ;
#209 = PRODUCT_RELATED_PRODUCT_CATEGORY ( 'part', '', ( #220 ) ) ;
#210 = CARTESIAN_POINT ( 'NONE',  ( 40.25000000000000000, 4.929203366568096813E-15, 0.000000000000000000 ) ) ;
#211 = VECTOR ( 'NONE', #181, 1000.000000000000000 ) ;
#212 = ORIENTED_EDGE ( 'NONE', *, *, #13, .F. ) ;
#213 = SURFACE_STYLE_USAGE ( .BOTH. , #189 ) ;
#214 =( NAMED_UNIT ( * ) PLANE_ANGLE_UNIT ( ) SI_UNIT ( $, .RADIAN. ) );
#215 = VECTOR ( 'NONE', #280, 1000.000000000000000 ) ;
#216 =( GEOMETRIC_REPRESENTATION_CONTEXT ( 3 ) GLOBAL_UNCERTAINTY_ASSIGNED_CONTEXT ( ( #317 ) ) GLOBAL_UNIT_ASSIGNED_CONTEXT ( ( #90, #214, #67 ) ) REPRESENTATION_CONTEXT ( 'NONE', 'WORKASPACE' ) );
#217 = ORIENTED_EDGE ( 'NONE', *, *, #237, .T. ) ;
#218 = DIRECTION ( 'NONE',  ( 0.000000000000000000, 0.000000000000000000, 1.000000000000000000 ) ) ;
#219 = CLOSED_SHELL ( 'NONE', ( #77, #182, #33, #99, #159, #203, #80, #284, #60, #178, #238 ) ) ;
#220 = PRODUCT ( 'Bouchon vissé Bague Montage', 'Bouchon vissé Bague Montage', '', ( #287 ) ) ;
#221 = EDGE_CURVE ( 'NONE', #247, #187, #69, .T. ) ;
#222 = ADVANCED_BREP_SHAPE_REPRESENTATION ( 'Bouchon vissÚ Bague Montage', ( #125, #8 ), #216 ) ;
#223 = FACE_OUTER_BOUND ( 'NONE', #166, .T. ) ;
#224 = AXIS2_PLACEMENT_3D ( 'NONE', #311, #130, #108 ) ;
#225 = EDGE_LOOP ( 'NONE', ( #112, #320, #119, #289 ) ) ;
#226 = DIRECTION ( 'NONE',  ( -1.000000000000000000, 0.000000000000000000, 0.000000000000000000 ) ) ;
#227 = CARTESIAN_POINT ( 'NONE',  ( 0.000000000000000000, 0.000000000000000000, 0.000000000000000000 ) ) ;
#228 = CARTESIAN_POINT ( 'NONE',  ( 0.000000000000000000, 0.000000000000000000, 20.00000000000000000 ) ) ;
#229 = FACE_OUTER_BOUND ( 'NONE', #116, .T. ) ;
#230 = PLANE ( 'NONE',  #258 ) ;
#231 = EDGE_LOOP ( 'NONE', ( #48, #217, #143, #314 ) ) ;
#232 = PLANE ( 'NONE',  #191 ) ;
#233 = LINE ( 'NONE', #260, #302 ) ;
#234 = ORIENTED_EDGE ( 'NONE', *, *, #168, .T. ) ;
#235 = FILL_AREA_STYLE_COLOUR ( '', #139 ) ;
#236 = CARTESIAN_POINT ( 'NONE',  ( 0.000000000000000000, 0.000000000000000000, 0.000000000000000000 ) ) ;
#237 = EDGE_CURVE ( 'NONE', #66, #297, #78, .T. ) ;
#238 = ADVANCED_FACE ( 'NONE', ( #142 ), #232, .T. ) ;
#239 = AXIS2_PLACEMENT_3D ( 'NONE', #200, #306, #10 ) ;
#240 = VECTOR ( 'NONE', #204, 999.9999999999998863 ) ;
#241 = ORIENTED_EDGE ( 'NONE', *, *, #300, .T. ) ;
#242 = UNCERTAINTY_MEASURE_WITH_UNIT (LENGTH_MEASURE( 1.000000000000000082E-05 ), #124, 'distance_accuracy_value', 'NONE');
#243 = FILL_AREA_STYLE ('',( #235 ) ) ;
#244 = ORIENTED_EDGE ( 'NONE', *, *, #318, .F. ) ;
#245 = EDGE_CURVE ( 'NONE', #162, #150, #233, .T. ) ;
#246 = DIRECTION ( 'NONE',  ( -0.000000000000000000, -0.000000000000000000, -1.000000000000000000 ) ) ;
#247 = VERTEX_POINT ( 'NONE', #210 ) ;
#248 = DIRECTION ( 'NONE',  ( -0.000000000000000000, -0.000000000000000000, -1.000000000000000000 ) ) ;
#249 = AXIS2_PLACEMENT_3D ( 'NONE', #227, #24, #252 ) ;
#250 = CARTESIAN_POINT ( 'NONE',  ( 0.000000000000000000, 0.000000000000000000, 18.00000000000000355 ) ) ;
#251 = EDGE_LOOP ( 'NONE', ( #309, #29 ) ) ;
#252 = DIRECTION ( 'NONE',  ( -1.000000000000000000, 0.000000000000000000, 0.000000000000000000 ) ) ;
#253 = CARTESIAN_POINT ( 'NONE',  ( -40.99999999999999289, 5.143516556418882533E-15, -2.999999999999998668 ) ) ;
#254 = EDGE_CURVE ( 'NONE', #297, #305, #255, .T. ) ;
#255 = LINE ( 'NONE', #160, #240 ) ;
#256 = FACE_OUTER_BOUND ( 'NONE', #44, .T. ) ;
#257 = DIRECTION ( 'NONE',  ( -1.000000000000000000, 0.000000000000000000, 0.000000000000000000 ) ) ;
#258 = AXIS2_PLACEMENT_3D ( 'NONE', #50, #30, #277 ) ;
#259 = DIRECTION ( 'NONE',  ( -0.000000000000000000, -0.000000000000000000, -1.000000000000000000 ) ) ;
#260 = CARTESIAN_POINT ( 'NONE',  ( -43.00000000000000000, 0.000000000000000000, -3.000000000000005329 ) ) ;
#261 = DIRECTION ( 'NONE',  ( -0.000000000000000000, -0.000000000000000000, -1.000000000000000000 ) ) ;
#262 = CARTESIAN_POINT ( 'NONE',  ( 0.000000000000000000, 0.000000000000000000, -0.9999999999999991118 ) ) ;
#263 = CARTESIAN_POINT ( 'NONE',  ( -42.25000000000000000, 5.174132726397567109E-15, 20.00000000000000000 ) ) ;
#264 = FACE_BOUND ( 'NONE', #183, .T. ) ;
#265 = AXIS2_PLACEMENT_3D ( 'NONE', #40, #16, #85 ) ;
#266 = EDGE_LOOP ( 'NONE', ( #155, #196 ) ) ;
#267 = ORIENTED_EDGE ( 'NONE', *, *, #300, .F. ) ;
#268 = APPLICATION_PROTOCOL_DEFINITION ( 'draft international standard', 'automotive_design', 1998, #188 ) ;
#269 = SHAPE_DEFINITION_REPRESENTATION ( #175, #222 ) ;
#270 = EDGE_CURVE ( 'NONE', #297, #247, #120, .T. ) ;
#271 = DIRECTION ( 'NONE',  ( 0.000000000000000000, 0.000000000000000000, 1.000000000000000000 ) ) ;
#272 = AXIS2_PLACEMENT_3D ( 'NONE', #9, #158, #307 ) ;
#273 = LINE ( 'NONE', #122, #215 ) ;
#274 = EDGE_LOOP ( 'NONE', ( #21, #41 ) ) ;
#275 = CARTESIAN_POINT ( 'NONE',  ( 43.00000000000000000, 5.265981236333618470E-15, 20.00000000000000000 ) ) ;
#276 = CIRCLE ( 'NONE', #295, 40.99999999999999289 ) ;
#277 = DIRECTION ( 'NONE',  ( 1.000000000000000000, 0.000000000000000000, -0.000000000000000000 ) ) ;
#278 = CARTESIAN_POINT ( 'NONE',  ( 0.000000000000000000, 0.000000000000000000, 20.00000000000000000 ) ) ;
#279 = EDGE_CURVE ( 'NONE', #136, #162, #42, .T. ) ;
#280 = DIRECTION ( 'NONE',  ( -0.000000000000000000, -0.000000000000000000, -1.000000000000000000 ) ) ;
#281 = CYLINDRICAL_SURFACE ( 'NONE', #171, 43.00000000000000000 ) ;
#282 = CARTESIAN_POINT ( 'NONE',  ( -40.25000000000000000, 0.000000000000000000, 0.000000000000000000 ) ) ;
#283 = DIRECTION ( 'NONE',  ( -1.000000000000000000, 0.000000000000000000, 0.000000000000000000 ) ) ;
#284 = ADVANCED_FACE ( 'NONE', ( #264, #105 ), #152, .T. ) ;
#285 = DIRECTION ( 'NONE',  ( -0.000000000000000000, -0.000000000000000000, -1.000000000000000000 ) ) ;
#286 = STYLED_ITEM ( 'NONE', ( #47 ), #222 ) ;
#287 = PRODUCT_CONTEXT ( 'NONE', #188, 'mechanical' ) ;
#288 = CIRCLE ( 'NONE', #141, 42.25000000000000000 ) ;
#289 = ORIENTED_EDGE ( 'NONE', *, *, #32, .F. ) ;
#290 = ORIENTED_EDGE ( 'NONE', *, *, #270, .T. ) ;
#291 = PRESENTATION_LAYER_ASSIGNMENT (  '', '', ( #45 ) ) ;
#292 = CARTESIAN_POINT ( 'NONE',  ( 0.000000000000000000, 0.000000000000000000, -0.9999999999999991118 ) ) ;
#293 = FACE_OUTER_BOUND ( 'NONE', #225, .T. ) ;
#294 = VERTEX_POINT ( 'NONE', #31 ) ;
#295 = AXIS2_PLACEMENT_3D ( 'NONE', #76, #259, #102 ) ;
#296 = PRODUCT_DEFINITION_CONTEXT ( 'detailed design', #138, 'design' ) ;
#297 = VERTEX_POINT ( 'NONE', #185 ) ;
#298 = CARTESIAN_POINT ( 'NONE',  ( 0.000000000000000000, 0.000000000000000000, -3.000000000000005329 ) ) ;
#299 = DIRECTION ( 'NONE',  ( 0.7071067811865479058, 0.000000000000000000, 0.7071067811865471286 ) ) ;
#300 = EDGE_CURVE ( 'NONE', #150, #172, #61, .T. ) ;
#301 = DIRECTION ( 'NONE',  ( -0.000000000000000000, -0.000000000000000000, -1.000000000000000000 ) ) ;
#302 = VECTOR ( 'NONE', #208, 1000.000000000000000 ) ;
#303 = CARTESIAN_POINT ( 'NONE',  ( 0.000000000000000000, 0.000000000000000000, 20.00000000000000000 ) ) ;
#304 = MECHANICAL_DESIGN_GEOMETRIC_PRESENTATION_REPRESENTATION (  '', ( #45 ), #1 ) ;
#305 = VERTEX_POINT ( 'NONE', #154 ) ;
#306 = DIRECTION ( 'NONE',  ( 0.000000000000000000, 0.000000000000000000, 1.000000000000000000 ) ) ;
#307 = DIRECTION ( 'NONE',  ( 1.000000000000000000, 0.000000000000000000, -0.000000000000000000 ) ) ;
#308 = DIRECTION ( 'NONE',  ( -1.000000000000000000, 0.000000000000000000, 0.000000000000000000 ) ) ;
#309 = ORIENTED_EDGE ( 'NONE', *, *, #148, .T. ) ;
#310 = ORIENTED_EDGE ( 'NONE', *, *, #167, .F. ) ;
#311 = CARTESIAN_POINT ( 'NONE',  ( 0.000000000000000000, 0.000000000000000000, 20.00000000000000000 ) ) ;
#312 = EDGE_CURVE ( 'NONE', #157, #294, #199, .T. ) ;
#313 = DIRECTION ( 'NONE',  ( -0.000000000000000000, -0.000000000000000000, -1.000000000000000000 ) ) ;
#314 = ORIENTED_EDGE ( 'NONE', *, *, #140, .F. ) ;
#315 = AXIS2_PLACEMENT_3D ( 'NONE', #46, #271, #194 ) ;
#316 = ORIENTED_EDGE ( 'NONE', *, *, #245, .F. ) ;
#317 = UNCERTAINTY_MEASURE_WITH_UNIT (LENGTH_MEASURE( 1.000000000000000082E-05 ), #90, 'distance_accuracy_value', 'NONE');
#318 = EDGE_CURVE ( 'NONE', #305, #180, #288, .T. ) ;
#319 = LINE ( 'NONE', #202, #12 ) ;
#320 = ORIENTED_EDGE ( 'NONE', *, *, #279, .T. ) ;
ENDSEC;
END-ISO-10303-21;
