ISO-10303-21;
HEADER;
FILE_DESCRIPTION(('CATIA V5 STEP Exchange'),'2;1');

FILE_NAME('C:\\Users\\Eva\\Documents\\ISAT 2A\\S2\\Projet interdisciplinaire\\cao paul\\Deuxieme partie rotule BTE.stp','2021-05-01T13:11:54+00:00',('none'),('none'),'CATIA Version 5 Release 19 GA (IN-10)','CATIA V5 STEP AP203','none');

FILE_SCHEMA(('CONFIG_CONTROL_DESIGN'));

ENDSEC;
/* file written by CATIA V5R19 */
DATA;
#5=PRODUCT('deuxieme partie rotule tbe','','',(#2)) ;
#1=APPLICATION_CONTEXT('configuration controlled 3D design of mechanical parts and assemblies') ;
#14=PRODUCT_DEFINITION('',' ',#6,#3) ;
#16=SECURITY_CLASSIFICATION(' ',' ',#15) ;
#15=SECURITY_CLASSIFICATION_LEVEL('unclassified') ;
#47=CARTESIAN_POINT(' ',(0.,0.,0.)) ;
#52=CARTESIAN_POINT('Axis2P3D Location',(10.,0.,0.)) ;
#57=CARTESIAN_POINT('Line Origine',(10.,-10.,15.)) ;
#61=CARTESIAN_POINT('Vertex',(10.,-10.,20.)) ;
#63=CARTESIAN_POINT('Vertex',(10.,-10.,10.)) ;
#66=CARTESIAN_POINT('Axis2P3D Location',(10.,0.,20.)) ;
#70=CARTESIAN_POINT('Vertex',(10.,10.,20.)) ;
#73=CARTESIAN_POINT('Line Origine',(10.,10.,15.)) ;
#77=CARTESIAN_POINT('Vertex',(10.,10.,10.)) ;
#80=CARTESIAN_POINT('Line Origine',(10.,0.,10.)) ;
#91=CARTESIAN_POINT('Axis2P3D Location',(10.,0.,20.)) ;
#95=CARTESIAN_POINT('Vertex',(10.,5.,20.)) ;
#97=CARTESIAN_POINT('Vertex',(10.,-5.,20.)) ;
#100=CARTESIAN_POINT('Axis2P3D Location',(10.,0.,20.)) ;
#110=CARTESIAN_POINT('Axis2P3D Location',(15.,0.,20.)) ;
#115=CARTESIAN_POINT('Line Origine',(15.,-5.,20.)) ;
#119=CARTESIAN_POINT('Vertex',(20.,-5.,20.)) ;
#122=CARTESIAN_POINT('Axis2P3D Location',(20.,0.,20.)) ;
#126=CARTESIAN_POINT('Vertex',(20.,5.,20.)) ;
#129=CARTESIAN_POINT('Line Origine',(15.,5.,20.)) ;
#141=CARTESIAN_POINT('Axis2P3D Location',(20.,0.,20.)) ;
#153=CARTESIAN_POINT('Line Origine',(10.,0.,-10.)) ;
#157=CARTESIAN_POINT('Vertex',(10.,10.,-10.)) ;
#159=CARTESIAN_POINT('Vertex',(10.,-10.,-10.)) ;
#162=CARTESIAN_POINT('Line Origine',(10.,10.,-15.)) ;
#166=CARTESIAN_POINT('Vertex',(10.,10.,-20.)) ;
#169=CARTESIAN_POINT('Axis2P3D Location',(10.,0.,-20.)) ;
#173=CARTESIAN_POINT('Vertex',(10.,-10.,-20.)) ;
#176=CARTESIAN_POINT('Line Origine',(10.,-10.,-15.)) ;
#187=CARTESIAN_POINT('Axis2P3D Location',(10.,0.,-20.)) ;
#191=CARTESIAN_POINT('Vertex',(10.,5.,-20.)) ;
#193=CARTESIAN_POINT('Vertex',(10.,-5.,-20.)) ;
#196=CARTESIAN_POINT('Axis2P3D Location',(10.,0.,-20.)) ;
#206=CARTESIAN_POINT('Axis2P3D Location',(15.,0.,-20.)) ;
#211=CARTESIAN_POINT('Line Origine',(15.,-5.,-20.)) ;
#215=CARTESIAN_POINT('Vertex',(20.,-5.,-20.)) ;
#218=CARTESIAN_POINT('Axis2P3D Location',(20.,0.,-20.)) ;
#222=CARTESIAN_POINT('Vertex',(20.,5.,-20.)) ;
#225=CARTESIAN_POINT('Line Origine',(15.,5.,-20.)) ;
#237=CARTESIAN_POINT('Axis2P3D Location',(20.,0.,-20.)) ;
#249=CARTESIAN_POINT('Axis2P3D Location',(0.,10.,10.)) ;
#254=CARTESIAN_POINT('Line Origine',(5.,10.,10.)) ;
#258=CARTESIAN_POINT('Vertex',(0.,10.,10.)) ;
#261=CARTESIAN_POINT('Line Origine',(0.,0.,10.)) ;
#265=CARTESIAN_POINT('Vertex',(0.,-10.,10.)) ;
#268=CARTESIAN_POINT('Line Origine',(5.,-10.,10.)) ;
#280=CARTESIAN_POINT('Axis2P3D Location',(0.,0.,0.)) ;
#285=CARTESIAN_POINT('Line Origine',(0.,-10.,0.)) ;
#289=CARTESIAN_POINT('Vertex',(0.,-10.,-10.)) ;
#292=CARTESIAN_POINT('Line Origine',(0.,10.,0.)) ;
#296=CARTESIAN_POINT('Vertex',(0.,10.,-10.)) ;
#299=CARTESIAN_POINT('Line Origine',(0.,0.,-10.)) ;
#311=CARTESIAN_POINT('Axis2P3D Location',(0.,-10.,-10.)) ;
#316=CARTESIAN_POINT('Line Origine',(5.,-10.,-10.)) ;
#321=CARTESIAN_POINT('Line Origine',(5.,10.,-10.)) ;
#333=CARTESIAN_POINT('Axis2P3D Location',(20.,5.,0.)) ;
#339=CARTESIAN_POINT('Control Point',(20.,10.,-5.59016994375)) ;
#340=CARTESIAN_POINT('Control Point',(20.,8.92974772491,-6.54743267982)) ;
#341=CARTESIAN_POINT('Control Point',(20.,7.63040746335,-7.24856726061)) ;
#342=CARTESIAN_POINT('Control Point',(20.,6.18338750521,-7.61973521635)) ;
#343=CARTESIAN_POINT('Control Point',(20.,2.63528745976,-7.64582655633)) ;
#344=CARTESIAN_POINT('Control Point',(20.,-0.46511052128,-5.73845551695)) ;
#345=CARTESIAN_POINT('Control Point',(20.,-1.82338868277,-4.02972351578)) ;
#346=CARTESIAN_POINT('Control Point',(20.,-2.5,-2.01486175789)) ;
#347=CARTESIAN_POINT('Control Point',(20.,-2.5,-4.4408920985E-015)) ;
#348=CARTESIAN_POINT('Vertex',(20.,10.,-5.59016994375)) ;
#350=CARTESIAN_POINT('Vertex',(20.,-2.5,4.78741559098E-015)) ;
#354=CARTESIAN_POINT('Control Point',(20.,10.,-5.59016994375)) ;
#355=CARTESIAN_POINT('Control Point',(19.0683035152,10.,-5.59016994375)) ;
#356=CARTESIAN_POINT('Control Point',(18.1375703519,10.,-5.35251474967)) ;
#357=CARTESIAN_POINT('Control Point',(17.3199297638,10.,-4.90583566064)) ;
#358=CARTESIAN_POINT('Vertex',(17.3199297638,10.,-4.90583566064)) ;
#361=CARTESIAN_POINT('Axis2P3D Location',(20.,5.,0.)) ;
#373=CARTESIAN_POINT('Control Point',(20.,10.,5.59016994375)) ;
#374=CARTESIAN_POINT('Control Point',(18.7603718879,10.,5.59016994375)) ;
#375=CARTESIAN_POINT('Control Point',(17.5207437758,10.,5.24655832912)) ;
#376=CARTESIAN_POINT('Control Point',(16.4087666883,10.,4.55808392062)) ;
#377=CARTESIAN_POINT('Control Point',(15.1184228082,10.,3.12329167342)) ;
#378=CARTESIAN_POINT('Control Point',(14.5202194409,10.,1.34381772927)) ;
#379=CARTESIAN_POINT('Control Point',(14.4048202459,10.,0.726501607208)) ;
#380=CARTESIAN_POINT('Control Point',(14.3264576315,10.,-1.00187721327)) ;
#381=CARTESIAN_POINT('Control Point',(14.9020244047,10.,-2.66963835703)) ;
#382=CARTESIAN_POINT('Control Point',(15.5283196137,10.,-3.62220908428)) ;
#383=CARTESIAN_POINT('Control Point',(16.3599908226,10.,-4.38141862696)) ;
#384=CARTESIAN_POINT('Control Point',(17.3199297638,10.,-4.90583566064)) ;
#385=CARTESIAN_POINT('Vertex',(20.,10.,5.59016994375)) ;
#389=CARTESIAN_POINT('Control Point',(20.,10.,5.59016994375)) ;
#390=CARTESIAN_POINT('Control Point',(20.,8.92974772624,6.54743267863)) ;
#391=CARTESIAN_POINT('Control Point',(20.,7.63040746657,7.24856725887)) ;
#392=CARTESIAN_POINT('Control Point',(20.,6.18338750138,7.6197352164)) ;
#393=CARTESIAN_POINT('Control Point',(20.,2.63528745802,7.64582655529)) ;
#394=CARTESIAN_POINT('Control Point',(20.,-0.465110521336,5.73845551686)) ;
#395=CARTESIAN_POINT('Control Point',(20.,-1.82338868279,4.02972351571)) ;
#396=CARTESIAN_POINT('Control Point',(20.,-2.5,2.01486175785)) ;
#397=CARTESIAN_POINT('Control Point',(20.,-2.5,4.4408920985E-015)) ;
#405=CARTESIAN_POINT('Axis2P3D Location',(0.,10.,-10.)) ;
#410=CARTESIAN_POINT('Line Origine',(15.,10.,20.)) ;
#414=CARTESIAN_POINT('Vertex',(20.,10.,20.)) ;
#417=CARTESIAN_POINT('Line Origine',(20.,10.,15.)) ;
#421=CARTESIAN_POINT('Vertex',(20.,10.,10.)) ;
#424=CARTESIAN_POINT('Line Origine',(20.,10.,7.79508497187)) ;
#429=CARTESIAN_POINT('Line Origine',(20.,10.,-7.79508497187)) ;
#433=CARTESIAN_POINT('Vertex',(20.,10.,-10.)) ;
#436=CARTESIAN_POINT('Line Origine',(20.,10.,-15.)) ;
#440=CARTESIAN_POINT('Vertex',(20.,10.,-20.)) ;
#443=CARTESIAN_POINT('Line Origine',(15.,10.,-20.)) ;
#464=CARTESIAN_POINT('Axis2P3D Location',(20.,0.,0.)) ;
#469=CARTESIAN_POINT('Line Origine',(20.,-10.,0.)) ;
#473=CARTESIAN_POINT('Vertex',(20.,-10.,20.)) ;
#475=CARTESIAN_POINT('Vertex',(20.,-10.,-20.)) ;
#478=CARTESIAN_POINT('Axis2P3D Location',(20.,0.,-20.)) ;
#483=CARTESIAN_POINT('Axis2P3D Location',(20.,0.,20.)) ;
#508=CARTESIAN_POINT('Axis2P3D Location',(0.,-10.,10.)) ;
#513=CARTESIAN_POINT('Line Origine',(15.,-10.,20.)) ;
#518=CARTESIAN_POINT('Line Origine',(15.,-10.,-20.)) ;
#534=CARTESIAN_POINT('Axis2P3D Location',(15.,0.,20.)) ;
#546=CARTESIAN_POINT('Axis2P3D Location',(15.,0.,-20.)) ;
#53=DIRECTION('Axis2P3D Direction',(1.,0.,0.)) ;
#54=DIRECTION('Axis2P3D XDirection',(0.,1.,0.)) ;
#58=DIRECTION('Vector Direction',(0.,0.,1.)) ;
#67=DIRECTION('Axis2P3D Direction',(1.,0.,0.)) ;
#74=DIRECTION('Vector Direction',(0.,0.,-1.)) ;
#81=DIRECTION('Vector Direction',(0.,-1.,0.)) ;
#92=DIRECTION('Axis2P3D Direction',(1.,0.,0.)) ;
#101=DIRECTION('Axis2P3D Direction',(1.,0.,0.)) ;
#111=DIRECTION('Axis2P3D Direction',(1.,0.,0.)) ;
#112=DIRECTION('Axis2P3D XDirection',(0.,1.,0.)) ;
#116=DIRECTION('Vector Direction',(1.,0.,0.)) ;
#123=DIRECTION('Axis2P3D Direction',(1.,0.,0.)) ;
#130=DIRECTION('Vector Direction',(1.,0.,0.)) ;
#142=DIRECTION('Axis2P3D Direction',(1.,0.,0.)) ;
#154=DIRECTION('Vector Direction',(0.,-1.,0.)) ;
#163=DIRECTION('Vector Direction',(0.,0.,1.)) ;
#170=DIRECTION('Axis2P3D Direction',(1.,0.,0.)) ;
#177=DIRECTION('Vector Direction',(0.,0.,-1.)) ;
#188=DIRECTION('Axis2P3D Direction',(1.,0.,0.)) ;
#197=DIRECTION('Axis2P3D Direction',(1.,0.,0.)) ;
#207=DIRECTION('Axis2P3D Direction',(1.,0.,0.)) ;
#208=DIRECTION('Axis2P3D XDirection',(0.,1.,0.)) ;
#212=DIRECTION('Vector Direction',(1.,0.,0.)) ;
#219=DIRECTION('Axis2P3D Direction',(1.,0.,0.)) ;
#226=DIRECTION('Vector Direction',(1.,0.,0.)) ;
#238=DIRECTION('Axis2P3D Direction',(1.,0.,0.)) ;
#250=DIRECTION('Axis2P3D Direction',(-0.,0.,1.)) ;
#251=DIRECTION('Axis2P3D XDirection',(0.,-1.,0.)) ;
#255=DIRECTION('Vector Direction',(1.,0.,0.)) ;
#262=DIRECTION('Vector Direction',(0.,-1.,0.)) ;
#269=DIRECTION('Vector Direction',(1.,0.,0.)) ;
#281=DIRECTION('Axis2P3D Direction',(1.,0.,0.)) ;
#282=DIRECTION('Axis2P3D XDirection',(0.,1.,0.)) ;
#286=DIRECTION('Vector Direction',(0.,0.,-1.)) ;
#293=DIRECTION('Vector Direction',(0.,0.,1.)) ;
#300=DIRECTION('Vector Direction',(0.,1.,0.)) ;
#312=DIRECTION('Axis2P3D Direction',(0.,0.,-1.)) ;
#313=DIRECTION('Axis2P3D XDirection',(0.,1.,0.)) ;
#317=DIRECTION('Vector Direction',(1.,0.,0.)) ;
#322=DIRECTION('Vector Direction',(1.,0.,0.)) ;
#334=DIRECTION('Axis2P3D Direction',(0.,1.,0.)) ;
#335=DIRECTION('Axis2P3D XDirection',(-0.479425538604,0.,-0.87758256189)) ;
#362=DIRECTION('Axis2P3D Direction',(0.87758256189,0.,-0.479425538604)) ;
#406=DIRECTION('Axis2P3D Direction',(0.,1.,0.)) ;
#407=DIRECTION('Axis2P3D XDirection',(0.,0.,1.)) ;
#411=DIRECTION('Vector Direction',(-1.,0.,0.)) ;
#418=DIRECTION('Vector Direction',(0.,0.,-1.)) ;
#425=DIRECTION('Vector Direction',(0.,0.,1.)) ;
#430=DIRECTION('Vector Direction',(0.,0.,1.)) ;
#437=DIRECTION('Vector Direction',(0.,0.,1.)) ;
#444=DIRECTION('Vector Direction',(-1.,0.,0.)) ;
#465=DIRECTION('Axis2P3D Direction',(1.,0.,0.)) ;
#466=DIRECTION('Axis2P3D XDirection',(0.,1.,0.)) ;
#470=DIRECTION('Vector Direction',(0.,0.,1.)) ;
#479=DIRECTION('Axis2P3D Direction',(1.,0.,0.)) ;
#484=DIRECTION('Axis2P3D Direction',(1.,0.,0.)) ;
#509=DIRECTION('Axis2P3D Direction',(0.,-1.,0.)) ;
#510=DIRECTION('Axis2P3D XDirection',(0.,0.,-1.)) ;
#514=DIRECTION('Vector Direction',(-1.,0.,0.)) ;
#519=DIRECTION('Vector Direction',(-1.,0.,0.)) ;
#535=DIRECTION('Axis2P3D Direction',(1.,0.,0.)) ;
#536=DIRECTION('Axis2P3D XDirection',(0.,1.,0.)) ;
#547=DIRECTION('Axis2P3D Direction',(1.,0.,0.)) ;
#548=DIRECTION('Axis2P3D XDirection',(0.,-1.,1.22464679915E-016)) ;
#48=AXIS2_PLACEMENT_3D(' ',#47,$,$) ;
#55=AXIS2_PLACEMENT_3D('Plane Axis2P3D',#52,#53,#54) ;
#68=AXIS2_PLACEMENT_3D('Circle Axis2P3D',#66,#67,$) ;
#93=AXIS2_PLACEMENT_3D('Circle Axis2P3D',#91,#92,$) ;
#102=AXIS2_PLACEMENT_3D('Circle Axis2P3D',#100,#101,$) ;
#113=AXIS2_PLACEMENT_3D('Cylinder Axis2P3D',#110,#111,#112) ;
#124=AXIS2_PLACEMENT_3D('Circle Axis2P3D',#122,#123,$) ;
#143=AXIS2_PLACEMENT_3D('Circle Axis2P3D',#141,#142,$) ;
#171=AXIS2_PLACEMENT_3D('Circle Axis2P3D',#169,#170,$) ;
#189=AXIS2_PLACEMENT_3D('Circle Axis2P3D',#187,#188,$) ;
#198=AXIS2_PLACEMENT_3D('Circle Axis2P3D',#196,#197,$) ;
#209=AXIS2_PLACEMENT_3D('Cylinder Axis2P3D',#206,#207,#208) ;
#220=AXIS2_PLACEMENT_3D('Circle Axis2P3D',#218,#219,$) ;
#239=AXIS2_PLACEMENT_3D('Circle Axis2P3D',#237,#238,$) ;
#252=AXIS2_PLACEMENT_3D('Plane Axis2P3D',#249,#250,#251) ;
#283=AXIS2_PLACEMENT_3D('Plane Axis2P3D',#280,#281,#282) ;
#314=AXIS2_PLACEMENT_3D('Plane Axis2P3D',#311,#312,#313) ;
#336=AXIS2_PLACEMENT_3D('Sphere Axis2P3D',#333,#334,#335) ;
#363=AXIS2_PLACEMENT_3D('Circle Axis2P3D',#361,#362,$) ;
#408=AXIS2_PLACEMENT_3D('Plane Axis2P3D',#405,#406,#407) ;
#467=AXIS2_PLACEMENT_3D('Plane Axis2P3D',#464,#465,#466) ;
#480=AXIS2_PLACEMENT_3D('Circle Axis2P3D',#478,#479,$) ;
#485=AXIS2_PLACEMENT_3D('Circle Axis2P3D',#483,#484,$) ;
#511=AXIS2_PLACEMENT_3D('Plane Axis2P3D',#508,#509,#510) ;
#537=AXIS2_PLACEMENT_3D('Cylinder Axis2P3D',#534,#535,#536) ;
#549=AXIS2_PLACEMENT_3D('Cylinder Axis2P3D',#546,#547,#548) ;
#40=PRODUCT_DEFINITION_SHAPE(' ',' ',#14) ;
#31=APPROVAL_PERSON_ORGANIZATION(#25,#21,#19) ;
#25=PERSON_AND_ORGANIZATION(#22,#23) ;
#22=PERSON(' ',' ',' ',$,$,$) ;
#23=ORGANIZATION(' ',' ',' ') ;
#21=APPROVAL(#20,' ') ;
#20=APPROVAL_STATUS('not_yet_approved') ;
#19=APPROVAL_ROLE('APPROVER') ;
#13=DATE_AND_TIME(#11,#12) ;
#12=LOCAL_TIME(15,11,54.,#10) ;
#10=COORDINATED_UNIVERSAL_TIME_OFFSET(0,0,.AHEAD.) ;
#86=ORIENTED_EDGE('',*,*,#65,.F.) ;
#87=ORIENTED_EDGE('',*,*,#72,.F.) ;
#88=ORIENTED_EDGE('',*,*,#79,.F.) ;
#89=ORIENTED_EDGE('',*,*,#84,.F.) ;
#106=ORIENTED_EDGE('',*,*,#99,.T.) ;
#107=ORIENTED_EDGE('',*,*,#104,.T.) ;
#135=ORIENTED_EDGE('',*,*,#121,.F.) ;
#136=ORIENTED_EDGE('',*,*,#128,.T.) ;
#137=ORIENTED_EDGE('',*,*,#133,.T.) ;
#138=ORIENTED_EDGE('',*,*,#104,.F.) ;
#147=ORIENTED_EDGE('',*,*,#133,.F.) ;
#148=ORIENTED_EDGE('',*,*,#145,.T.) ;
#149=ORIENTED_EDGE('',*,*,#121,.T.) ;
#150=ORIENTED_EDGE('',*,*,#99,.F.) ;
#182=ORIENTED_EDGE('',*,*,#161,.F.) ;
#183=ORIENTED_EDGE('',*,*,#168,.F.) ;
#184=ORIENTED_EDGE('',*,*,#175,.F.) ;
#185=ORIENTED_EDGE('',*,*,#180,.F.) ;
#202=ORIENTED_EDGE('',*,*,#195,.T.) ;
#203=ORIENTED_EDGE('',*,*,#200,.T.) ;
#231=ORIENTED_EDGE('',*,*,#217,.F.) ;
#232=ORIENTED_EDGE('',*,*,#224,.T.) ;
#233=ORIENTED_EDGE('',*,*,#229,.T.) ;
#234=ORIENTED_EDGE('',*,*,#200,.F.) ;
#243=ORIENTED_EDGE('',*,*,#229,.F.) ;
#244=ORIENTED_EDGE('',*,*,#241,.T.) ;
#245=ORIENTED_EDGE('',*,*,#217,.T.) ;
#246=ORIENTED_EDGE('',*,*,#195,.F.) ;
#274=ORIENTED_EDGE('',*,*,#260,.F.) ;
#275=ORIENTED_EDGE('',*,*,#267,.T.) ;
#276=ORIENTED_EDGE('',*,*,#272,.T.) ;
#277=ORIENTED_EDGE('',*,*,#84,.T.) ;
#305=ORIENTED_EDGE('',*,*,#291,.F.) ;
#306=ORIENTED_EDGE('',*,*,#267,.F.) ;
#307=ORIENTED_EDGE('',*,*,#298,.F.) ;
#308=ORIENTED_EDGE('',*,*,#303,.F.) ;
#327=ORIENTED_EDGE('',*,*,#320,.F.) ;
#328=ORIENTED_EDGE('',*,*,#303,.T.) ;
#329=ORIENTED_EDGE('',*,*,#325,.T.) ;
#330=ORIENTED_EDGE('',*,*,#161,.T.) ;
#367=ORIENTED_EDGE('',*,*,#352,.F.) ;
#368=ORIENTED_EDGE('',*,*,#360,.T.) ;
#369=ORIENTED_EDGE('',*,*,#365,.F.) ;
#400=ORIENTED_EDGE('',*,*,#387,.F.) ;
#401=ORIENTED_EDGE('',*,*,#398,.T.) ;
#402=ORIENTED_EDGE('',*,*,#365,.T.) ;
#449=ORIENTED_EDGE('',*,*,#168,.T.) ;
#450=ORIENTED_EDGE('',*,*,#325,.F.) ;
#451=ORIENTED_EDGE('',*,*,#298,.T.) ;
#452=ORIENTED_EDGE('',*,*,#260,.T.) ;
#453=ORIENTED_EDGE('',*,*,#79,.T.) ;
#454=ORIENTED_EDGE('',*,*,#416,.F.) ;
#455=ORIENTED_EDGE('',*,*,#423,.F.) ;
#456=ORIENTED_EDGE('',*,*,#428,.F.) ;
#457=ORIENTED_EDGE('',*,*,#387,.T.) ;
#458=ORIENTED_EDGE('',*,*,#360,.F.) ;
#459=ORIENTED_EDGE('',*,*,#435,.F.) ;
#460=ORIENTED_EDGE('',*,*,#442,.F.) ;
#461=ORIENTED_EDGE('',*,*,#447,.T.) ;
#489=ORIENTED_EDGE('',*,*,#477,.T.) ;
#490=ORIENTED_EDGE('',*,*,#482,.T.) ;
#491=ORIENTED_EDGE('',*,*,#442,.T.) ;
#492=ORIENTED_EDGE('',*,*,#435,.T.) ;
#493=ORIENTED_EDGE('',*,*,#352,.T.) ;
#494=ORIENTED_EDGE('',*,*,#398,.F.) ;
#495=ORIENTED_EDGE('',*,*,#428,.T.) ;
#496=ORIENTED_EDGE('',*,*,#423,.T.) ;
#497=ORIENTED_EDGE('',*,*,#487,.T.) ;
#500=ORIENTED_EDGE('',*,*,#145,.F.) ;
#501=ORIENTED_EDGE('',*,*,#128,.F.) ;
#504=ORIENTED_EDGE('',*,*,#224,.F.) ;
#505=ORIENTED_EDGE('',*,*,#241,.F.) ;
#524=ORIENTED_EDGE('',*,*,#517,.T.) ;
#525=ORIENTED_EDGE('',*,*,#65,.T.) ;
#526=ORIENTED_EDGE('',*,*,#272,.F.) ;
#527=ORIENTED_EDGE('',*,*,#291,.T.) ;
#528=ORIENTED_EDGE('',*,*,#320,.T.) ;
#529=ORIENTED_EDGE('',*,*,#180,.T.) ;
#530=ORIENTED_EDGE('',*,*,#522,.F.) ;
#531=ORIENTED_EDGE('',*,*,#477,.F.) ;
#540=ORIENTED_EDGE('',*,*,#72,.T.) ;
#541=ORIENTED_EDGE('',*,*,#517,.F.) ;
#542=ORIENTED_EDGE('',*,*,#487,.F.) ;
#543=ORIENTED_EDGE('',*,*,#416,.T.) ;
#552=ORIENTED_EDGE('',*,*,#175,.T.) ;
#553=ORIENTED_EDGE('',*,*,#447,.F.) ;
#554=ORIENTED_EDGE('',*,*,#482,.F.) ;
#555=ORIENTED_EDGE('',*,*,#522,.T.) ;
#108=FACE_BOUND('',#105,.T.) ;
#204=FACE_BOUND('',#201,.T.) ;
#502=FACE_BOUND('',#499,.T.) ;
#506=FACE_BOUND('',#503,.T.) ;
#51=CLOSED_SHELL('Closed Shell',(#109,#140,#152,#205,#236,#248,#279,#310,#332,#371,#404,#463,#507,#533,#545,#557)) ;
#59=VECTOR('Line Direction',#58,1.) ;
#75=VECTOR('Line Direction',#74,1.) ;
#82=VECTOR('Line Direction',#81,1.) ;
#117=VECTOR('Line Direction',#116,1.) ;
#131=VECTOR('Line Direction',#130,1.) ;
#155=VECTOR('Line Direction',#154,1.) ;
#164=VECTOR('Line Direction',#163,1.) ;
#178=VECTOR('Line Direction',#177,1.) ;
#213=VECTOR('Line Direction',#212,1.) ;
#227=VECTOR('Line Direction',#226,1.) ;
#256=VECTOR('Line Direction',#255,1.) ;
#263=VECTOR('Line Direction',#262,1.) ;
#270=VECTOR('Line Direction',#269,1.) ;
#287=VECTOR('Line Direction',#286,1.) ;
#294=VECTOR('Line Direction',#293,1.) ;
#301=VECTOR('Line Direction',#300,1.) ;
#318=VECTOR('Line Direction',#317,1.) ;
#323=VECTOR('Line Direction',#322,1.) ;
#412=VECTOR('Line Direction',#411,1.) ;
#419=VECTOR('Line Direction',#418,1.) ;
#426=VECTOR('Line Direction',#425,1.) ;
#431=VECTOR('Line Direction',#430,1.) ;
#438=VECTOR('Line Direction',#437,1.) ;
#445=VECTOR('Line Direction',#444,1.) ;
#471=VECTOR('Line Direction',#470,1.) ;
#515=VECTOR('Line Direction',#514,1.) ;
#520=VECTOR('Line Direction',#519,1.) ;
#559=ADVANCED_BREP_SHAPE_REPRESENTATION('NONE',(#558),#46) ;
#49=SHAPE_REPRESENTATION(' ',(#48),#46) ;
#109=ADVANCED_FACE('Corps principal',(#90,#108),#56,.F.) ;
#140=ADVANCED_FACE('Corps principal',(#139),#114,.F.) ;
#152=ADVANCED_FACE('Corps principal',(#151),#114,.F.) ;
#205=ADVANCED_FACE('Corps principal',(#186,#204),#56,.F.) ;
#236=ADVANCED_FACE('Corps principal',(#235),#210,.F.) ;
#248=ADVANCED_FACE('Corps principal',(#247),#210,.F.) ;
#279=ADVANCED_FACE('Corps principal',(#278),#253,.T.) ;
#310=ADVANCED_FACE('Corps principal',(#309),#284,.F.) ;
#332=ADVANCED_FACE('Corps principal',(#331),#315,.T.) ;
#371=ADVANCED_FACE('Corps principal',(#370),#337,.F.) ;
#404=ADVANCED_FACE('Corps principal',(#403),#337,.F.) ;
#463=ADVANCED_FACE('Corps principal',(#462),#409,.T.) ;
#507=ADVANCED_FACE('Corps principal',(#498,#502,#506),#468,.T.) ;
#533=ADVANCED_FACE('Corps principal',(#532),#512,.T.) ;
#545=ADVANCED_FACE('Corps principal',(#544),#538,.T.) ;
#557=ADVANCED_FACE('Corps principal',(#556),#550,.T.) ;
#4=APPLICATION_PROTOCOL_DEFINITION('international standard','config_control_design',1994,#1) ;
#32=APPROVAL_DATE_TIME(#13,#21) ;
#338=B_SPLINE_CURVE_WITH_KNOTS('',5,(#339,#340,#341,#342,#343,#344,#345,#346,#347),.UNSPECIFIED.,.F.,.U.,(6,3,6),(0.,10.1533045808,24.4005287023),.UNSPECIFIED.) ;
#353=B_SPLINE_CURVE_WITH_KNOTS('',3,(#354,#355,#356,#357),.UNSPECIFIED.,.F.,.U.,(4,4),(0.,4.67707923412),.UNSPECIFIED.) ;
#372=B_SPLINE_CURVE_WITH_KNOTS('',5,(#373,#374,#375,#376,#377,#378,#379,#380,#381,#382,#383,#384),.UNSPECIFIED.,.F.,.U.,(6,3,3,6),(0.,10.3714728917,15.5581198546,24.7098803258),.UNSPECIFIED.) ;
#388=B_SPLINE_CURVE_WITH_KNOTS('',5,(#389,#390,#391,#392,#393,#394,#395,#396,#397),.UNSPECIFIED.,.F.,.U.,(6,3,6),(0.,10.1533045682,24.4005286895),.UNSPECIFIED.) ;
#558=MANIFOLD_SOLID_BREP('Corps principal',#51) ;
#11=CALENDAR_DATE(2021,1,5) ;
#30=CC_DESIGN_APPROVAL(#21,(#16,#6,#14)) ;
#18=CC_DESIGN_DATE_AND_TIME_ASSIGNMENT(#13,#17,(#16)) ;
#29=CC_DESIGN_DATE_AND_TIME_ASSIGNMENT(#13,#28,(#14)) ;
#17=DATE_TIME_ROLE('classification_date') ;
#28=DATE_TIME_ROLE('creation_date') ;
#27=CC_DESIGN_PERSON_AND_ORGANIZATION_ASSIGNMENT(#25,#26,(#16)) ;
#33=CC_DESIGN_PERSON_AND_ORGANIZATION_ASSIGNMENT(#25,#34,(#6)) ;
#35=CC_DESIGN_PERSON_AND_ORGANIZATION_ASSIGNMENT(#25,#36,(#6,#14)) ;
#37=CC_DESIGN_PERSON_AND_ORGANIZATION_ASSIGNMENT(#25,#38,(#5)) ;
#26=PERSON_AND_ORGANIZATION_ROLE('classification_officer') ;
#34=PERSON_AND_ORGANIZATION_ROLE('design_supplier') ;
#36=PERSON_AND_ORGANIZATION_ROLE('creator') ;
#38=PERSON_AND_ORGANIZATION_ROLE('design_owner') ;
#39=CC_DESIGN_SECURITY_CLASSIFICATION(#16,(#6)) ;
#69=CIRCLE('generated circle',#68,10.) ;
#94=CIRCLE('generated circle',#93,5.) ;
#103=CIRCLE('generated circle',#102,5.) ;
#125=CIRCLE('generated circle',#124,5.) ;
#144=CIRCLE('generated circle',#143,5.) ;
#172=CIRCLE('generated circle',#171,10.) ;
#190=CIRCLE('generated circle',#189,5.) ;
#199=CIRCLE('generated circle',#198,5.) ;
#221=CIRCLE('generated circle',#220,5.) ;
#240=CIRCLE('generated circle',#239,5.) ;
#364=CIRCLE('generated circle',#363,7.5) ;
#481=CIRCLE('generated circle',#480,10.) ;
#486=CIRCLE('generated circle',#485,10.) ;
#560=SHAPE_REPRESENTATION_RELATIONSHIP(' ',' ',#49,#559) ;
#114=CYLINDRICAL_SURFACE('generated cylinder',#113,5.) ;
#210=CYLINDRICAL_SURFACE('generated cylinder',#209,5.) ;
#538=CYLINDRICAL_SURFACE('generated cylinder',#537,10.) ;
#550=CYLINDRICAL_SURFACE('generated cylinder',#549,10.) ;
#3=DESIGN_CONTEXT(' ',#1,'design') ;
#65=EDGE_CURVE('',#62,#64,#60,.F.) ;
#72=EDGE_CURVE('',#71,#62,#69,.T.) ;
#79=EDGE_CURVE('',#78,#71,#76,.F.) ;
#84=EDGE_CURVE('',#64,#78,#83,.F.) ;
#99=EDGE_CURVE('',#96,#98,#94,.T.) ;
#104=EDGE_CURVE('',#98,#96,#103,.T.) ;
#121=EDGE_CURVE('',#120,#98,#118,.F.) ;
#128=EDGE_CURVE('',#120,#127,#125,.T.) ;
#133=EDGE_CURVE('',#127,#96,#132,.F.) ;
#145=EDGE_CURVE('',#127,#120,#144,.T.) ;
#161=EDGE_CURVE('',#158,#160,#156,.T.) ;
#168=EDGE_CURVE('',#167,#158,#165,.T.) ;
#175=EDGE_CURVE('',#174,#167,#172,.T.) ;
#180=EDGE_CURVE('',#160,#174,#179,.T.) ;
#195=EDGE_CURVE('',#192,#194,#190,.T.) ;
#200=EDGE_CURVE('',#194,#192,#199,.T.) ;
#217=EDGE_CURVE('',#216,#194,#214,.F.) ;
#224=EDGE_CURVE('',#216,#223,#221,.T.) ;
#229=EDGE_CURVE('',#223,#192,#228,.F.) ;
#241=EDGE_CURVE('',#223,#216,#240,.T.) ;
#260=EDGE_CURVE('',#259,#78,#257,.T.) ;
#267=EDGE_CURVE('',#259,#266,#264,.T.) ;
#272=EDGE_CURVE('',#266,#64,#271,.T.) ;
#291=EDGE_CURVE('',#266,#290,#288,.T.) ;
#298=EDGE_CURVE('',#297,#259,#295,.T.) ;
#303=EDGE_CURVE('',#290,#297,#302,.T.) ;
#320=EDGE_CURVE('',#290,#160,#319,.T.) ;
#325=EDGE_CURVE('',#297,#158,#324,.T.) ;
#352=EDGE_CURVE('',#349,#351,#338,.T.) ;
#360=EDGE_CURVE('',#349,#359,#353,.T.) ;
#365=EDGE_CURVE('',#351,#359,#364,.T.) ;
#387=EDGE_CURVE('',#386,#359,#372,.T.) ;
#398=EDGE_CURVE('',#386,#351,#388,.T.) ;
#416=EDGE_CURVE('',#415,#71,#413,.T.) ;
#423=EDGE_CURVE('',#422,#415,#420,.F.) ;
#428=EDGE_CURVE('',#386,#422,#427,.T.) ;
#435=EDGE_CURVE('',#434,#349,#432,.T.) ;
#442=EDGE_CURVE('',#441,#434,#439,.T.) ;
#447=EDGE_CURVE('',#441,#167,#446,.T.) ;
#477=EDGE_CURVE('',#474,#476,#472,.F.) ;
#482=EDGE_CURVE('',#476,#441,#481,.T.) ;
#487=EDGE_CURVE('',#415,#474,#486,.T.) ;
#517=EDGE_CURVE('',#474,#62,#516,.T.) ;
#522=EDGE_CURVE('',#476,#174,#521,.T.) ;
#85=EDGE_LOOP('',(#86,#87,#88,#89)) ;
#105=EDGE_LOOP('',(#106,#107)) ;
#134=EDGE_LOOP('',(#135,#136,#137,#138)) ;
#146=EDGE_LOOP('',(#147,#148,#149,#150)) ;
#181=EDGE_LOOP('',(#182,#183,#184,#185)) ;
#201=EDGE_LOOP('',(#202,#203)) ;
#230=EDGE_LOOP('',(#231,#232,#233,#234)) ;
#242=EDGE_LOOP('',(#243,#244,#245,#246)) ;
#273=EDGE_LOOP('',(#274,#275,#276,#277)) ;
#304=EDGE_LOOP('',(#305,#306,#307,#308)) ;
#326=EDGE_LOOP('',(#327,#328,#329,#330)) ;
#366=EDGE_LOOP('',(#367,#368,#369)) ;
#399=EDGE_LOOP('',(#400,#401,#402)) ;
#448=EDGE_LOOP('',(#449,#450,#451,#452,#453,#454,#455,#456,#457,#458,#459,#460,#461)) ;
#488=EDGE_LOOP('',(#489,#490,#491,#492,#493,#494,#495,#496,#497)) ;
#499=EDGE_LOOP('',(#500,#501)) ;
#503=EDGE_LOOP('',(#504,#505)) ;
#523=EDGE_LOOP('',(#524,#525,#526,#527,#528,#529,#530,#531)) ;
#539=EDGE_LOOP('',(#540,#541,#542,#543)) ;
#551=EDGE_LOOP('',(#552,#553,#554,#555)) ;
#90=FACE_OUTER_BOUND('',#85,.T.) ;
#139=FACE_OUTER_BOUND('',#134,.T.) ;
#151=FACE_OUTER_BOUND('',#146,.T.) ;
#186=FACE_OUTER_BOUND('',#181,.T.) ;
#235=FACE_OUTER_BOUND('',#230,.T.) ;
#247=FACE_OUTER_BOUND('',#242,.T.) ;
#278=FACE_OUTER_BOUND('',#273,.T.) ;
#309=FACE_OUTER_BOUND('',#304,.T.) ;
#331=FACE_OUTER_BOUND('',#326,.T.) ;
#370=FACE_OUTER_BOUND('',#366,.T.) ;
#403=FACE_OUTER_BOUND('',#399,.T.) ;
#462=FACE_OUTER_BOUND('',#448,.T.) ;
#498=FACE_OUTER_BOUND('',#488,.T.) ;
#532=FACE_OUTER_BOUND('',#523,.T.) ;
#544=FACE_OUTER_BOUND('',#539,.T.) ;
#556=FACE_OUTER_BOUND('',#551,.T.) ;
#45=UNCERTAINTY_MEASURE_WITH_UNIT(LENGTH_MEASURE(0.005),#41,'distance_accuracy_value','CONFUSED CURVE UNCERTAINTY') ;
#60=LINE('Line',#57,#59) ;
#76=LINE('Line',#73,#75) ;
#83=LINE('Line',#80,#82) ;
#118=LINE('Line',#115,#117) ;
#132=LINE('Line',#129,#131) ;
#156=LINE('Line',#153,#155) ;
#165=LINE('Line',#162,#164) ;
#179=LINE('Line',#176,#178) ;
#214=LINE('Line',#211,#213) ;
#228=LINE('Line',#225,#227) ;
#257=LINE('Line',#254,#256) ;
#264=LINE('Line',#261,#263) ;
#271=LINE('Line',#268,#270) ;
#288=LINE('Line',#285,#287) ;
#295=LINE('Line',#292,#294) ;
#302=LINE('Line',#299,#301) ;
#319=LINE('Line',#316,#318) ;
#324=LINE('Line',#321,#323) ;
#413=LINE('Line',#410,#412) ;
#420=LINE('Line',#417,#419) ;
#427=LINE('Line',#424,#426) ;
#432=LINE('Line',#429,#431) ;
#439=LINE('Line',#436,#438) ;
#446=LINE('Line',#443,#445) ;
#472=LINE('Line',#469,#471) ;
#516=LINE('Line',#513,#515) ;
#521=LINE('Line',#518,#520) ;
#2=MECHANICAL_CONTEXT(' ',#1,'mechanical') ;
#24=PERSONAL_ADDRESS(' ',' ',' ',' ',' ',' ',' ',' ',' ',' ',' ',' ',(#22),' ') ;
#56=PLANE('Plane',#55) ;
#253=PLANE('Plane',#252) ;
#284=PLANE('Plane',#283) ;
#315=PLANE('Plane',#314) ;
#409=PLANE('Plane',#408) ;
#468=PLANE('Plane',#467) ;
#512=PLANE('Plane',#511) ;
#43=PLANE_ANGLE_MEASURE_WITH_UNIT(PLANE_ANGLE_MEASURE(0.0174532925199),#42) ;
#7=PRODUCT_CATEGORY('part',$) ;
#9=PRODUCT_CATEGORY_RELATIONSHIP(' ',' ',#7,#8) ;
#6=PRODUCT_DEFINITION_FORMATION_WITH_SPECIFIED_SOURCE('',' ',#5,.NOT_KNOWN.) ;
#8=PRODUCT_RELATED_PRODUCT_CATEGORY('detail',$,(#5)) ;
#50=SHAPE_DEFINITION_REPRESENTATION(#40,#49) ;
#337=SPHERICAL_SURFACE('',#336,7.5) ;
#62=VERTEX_POINT('',#61) ;
#64=VERTEX_POINT('',#63) ;
#71=VERTEX_POINT('',#70) ;
#78=VERTEX_POINT('',#77) ;
#96=VERTEX_POINT('',#95) ;
#98=VERTEX_POINT('',#97) ;
#120=VERTEX_POINT('',#119) ;
#127=VERTEX_POINT('',#126) ;
#158=VERTEX_POINT('',#157) ;
#160=VERTEX_POINT('',#159) ;
#167=VERTEX_POINT('',#166) ;
#174=VERTEX_POINT('',#173) ;
#192=VERTEX_POINT('',#191) ;
#194=VERTEX_POINT('',#193) ;
#216=VERTEX_POINT('',#215) ;
#223=VERTEX_POINT('',#222) ;
#259=VERTEX_POINT('',#258) ;
#266=VERTEX_POINT('',#265) ;
#290=VERTEX_POINT('',#289) ;
#297=VERTEX_POINT('',#296) ;
#349=VERTEX_POINT('',#348) ;
#351=VERTEX_POINT('',#350) ;
#359=VERTEX_POINT('',#358) ;
#386=VERTEX_POINT('',#385) ;
#415=VERTEX_POINT('',#414) ;
#422=VERTEX_POINT('',#421) ;
#434=VERTEX_POINT('',#433) ;
#441=VERTEX_POINT('',#440) ;
#474=VERTEX_POINT('',#473) ;
#476=VERTEX_POINT('',#475) ;
#41=(LENGTH_UNIT()NAMED_UNIT(*)SI_UNIT(.MILLI.,.METRE.)) ;
#42=(NAMED_UNIT(*)PLANE_ANGLE_UNIT()SI_UNIT($,.RADIAN.)) ;
#44=(NAMED_UNIT(*)SI_UNIT($,.STERADIAN.)SOLID_ANGLE_UNIT()) ;
#46=(GEOMETRIC_REPRESENTATION_CONTEXT(3)GLOBAL_UNCERTAINTY_ASSIGNED_CONTEXT((#45))GLOBAL_UNIT_ASSIGNED_CONTEXT((#41,#42,#44))REPRESENTATION_CONTEXT(' ',' ')) ;
ENDSEC;
END-ISO-10303-21;
