ISO-10303-21;
HEADER;
FILE_DESCRIPTION(('CATIA V5 STEP Exchange'),'2;1');

FILE_NAME('C:\\Users\\Rivet\\Documents\\PERSO\\_MAMAN\\SiegeDouche\\Modele_CATIA_02\\CATParts\\SiegeDouche_MachoireSup.stp','2021-05-12T16:25:31+00:00',('none'),('none'),'CATIA Version 5-6 Release 2017 SP5','CATIA V5 STEP AP203','none');

FILE_SCHEMA(('CONFIG_CONTROL_DESIGN'));

ENDSEC;
DATA;
#5=PRODUCT('SiegeDouche_MachoireSup','','',(#2)) ;
#1=APPLICATION_CONTEXT('configuration controlled 3D design of mechanical parts and assemblies') ;
#14=PRODUCT_DEFINITION('',' ',#6,#3) ;
#16=SECURITY_CLASSIFICATION(' ',' ',#15) ;
#15=SECURITY_CLASSIFICATION_LEVEL('unclassified') ;
#46=CARTESIAN_POINT(' ',(0.,0.,0.)) ;
#51=CARTESIAN_POINT('Axis2P3D Location',(67.,67.,10.)) ;
#56=CARTESIAN_POINT('Line Origine',(58.75,67.,2.50000023842)) ;
#60=CARTESIAN_POINT('Vertex',(58.75,67.,0.)) ;
#62=CARTESIAN_POINT('Vertex',(58.75,67.,10.)) ;
#65=CARTESIAN_POINT('Axis2P3D Location',(67.,67.,0.)) ;
#69=CARTESIAN_POINT('Vertex',(75.25,67.,0.)) ;
#72=CARTESIAN_POINT('Line Origine',(75.25,67.,2.50000023842)) ;
#76=CARTESIAN_POINT('Vertex',(75.25,67.,10.)) ;
#79=CARTESIAN_POINT('Axis2P3D Location',(67.,67.,10.)) ;
#91=CARTESIAN_POINT('Axis2P3D Location',(0.,0.,10.)) ;
#96=CARTESIAN_POINT('Line Origine',(-80.,0.,10.)) ;
#100=CARTESIAN_POINT('Vertex',(-80.,80.,10.)) ;
#102=CARTESIAN_POINT('Vertex',(-80.,-80.,10.)) ;
#105=CARTESIAN_POINT('Line Origine',(0.,-80.,10.)) ;
#109=CARTESIAN_POINT('Vertex',(80.,-80.,10.)) ;
#112=CARTESIAN_POINT('Line Origine',(80.,0.,10.)) ;
#116=CARTESIAN_POINT('Vertex',(80.,80.,10.)) ;
#119=CARTESIAN_POINT('Line Origine',(0.,80.,10.)) ;
#130=CARTESIAN_POINT('Axis2P3D Location',(67.,67.,10.)) ;
#139=CARTESIAN_POINT('Axis2P3D Location',(0.,3.5527136788E-015,10.)) ;
#143=CARTESIAN_POINT('Vertex',(-6.9175,2.70556425549E-015,10.)) ;
#145=CARTESIAN_POINT('Vertex',(6.9175,3.5527136788E-015,10.)) ;
#148=CARTESIAN_POINT('Axis2P3D Location',(0.,3.5527136788E-015,10.)) ;
#157=CARTESIAN_POINT('Axis2P3D Location',(67.,-67.,10.)) ;
#161=CARTESIAN_POINT('Vertex',(67.,-75.25,10.)) ;
#163=CARTESIAN_POINT('Vertex',(67.,-58.75,10.)) ;
#166=CARTESIAN_POINT('Axis2P3D Location',(67.,-67.,10.)) ;
#175=CARTESIAN_POINT('Axis2P3D Location',(-67.,-67.,10.)) ;
#179=CARTESIAN_POINT('Vertex',(-75.25,-67.,10.)) ;
#181=CARTESIAN_POINT('Vertex',(-58.75,-67.,10.)) ;
#184=CARTESIAN_POINT('Axis2P3D Location',(-67.,-67.,10.)) ;
#193=CARTESIAN_POINT('Axis2P3D Location',(-67.,67.,10.)) ;
#197=CARTESIAN_POINT('Vertex',(-67.,75.25,10.)) ;
#199=CARTESIAN_POINT('Vertex',(-67.,58.75,10.)) ;
#202=CARTESIAN_POINT('Axis2P3D Location',(-67.,67.,10.)) ;
#212=CARTESIAN_POINT('Axis2P3D Location',(67.,67.,0.)) ;
#224=CARTESIAN_POINT('Axis2P3D Location',(-80.,80.,0.)) ;
#229=CARTESIAN_POINT('Line Origine',(-80.,-35.5,-2.5)) ;
#233=CARTESIAN_POINT('Vertex',(-80.,-35.5,0.)) ;
#235=CARTESIAN_POINT('Vertex',(-80.,-35.5,-5.)) ;
#238=CARTESIAN_POINT('Line Origine',(-80.,-57.75,0.)) ;
#242=CARTESIAN_POINT('Vertex',(-80.,-80.,0.)) ;
#245=CARTESIAN_POINT('Line Origine',(-80.,-80.,5.)) ;
#250=CARTESIAN_POINT('Line Origine',(-80.,80.,5.)) ;
#254=CARTESIAN_POINT('Vertex',(-80.,80.,0.)) ;
#257=CARTESIAN_POINT('Line Origine',(-80.,57.75,0.)) ;
#261=CARTESIAN_POINT('Vertex',(-80.,35.5,0.)) ;
#264=CARTESIAN_POINT('Line Origine',(-80.,35.5,-2.5)) ;
#268=CARTESIAN_POINT('Vertex',(-80.,35.5,-5.)) ;
#271=CARTESIAN_POINT('Line Origine',(-80.,0.,-5.)) ;
#287=CARTESIAN_POINT('Axis2P3D Location',(80.,-80.,0.)) ;
#292=CARTESIAN_POINT('Line Origine',(0.,-80.,0.)) ;
#296=CARTESIAN_POINT('Vertex',(80.,-80.,0.)) ;
#299=CARTESIAN_POINT('Line Origine',(80.,-80.,5.)) ;
#311=CARTESIAN_POINT('Axis2P3D Location',(80.,-80.,0.)) ;
#316=CARTESIAN_POINT('Line Origine',(80.,35.5,-2.5)) ;
#320=CARTESIAN_POINT('Vertex',(80.,35.5,0.)) ;
#322=CARTESIAN_POINT('Vertex',(80.,35.5,-5.)) ;
#325=CARTESIAN_POINT('Line Origine',(80.,57.75,0.)) ;
#329=CARTESIAN_POINT('Vertex',(80.,80.,0.)) ;
#332=CARTESIAN_POINT('Line Origine',(80.,80.,5.)) ;
#337=CARTESIAN_POINT('Line Origine',(80.,-57.75,0.)) ;
#341=CARTESIAN_POINT('Vertex',(80.,-35.5,0.)) ;
#344=CARTESIAN_POINT('Line Origine',(80.,-35.5,-2.5)) ;
#348=CARTESIAN_POINT('Vertex',(80.,-35.5,-5.)) ;
#351=CARTESIAN_POINT('Line Origine',(80.,0.,-5.)) ;
#367=CARTESIAN_POINT('Axis2P3D Location',(-80.,80.,0.)) ;
#372=CARTESIAN_POINT('Line Origine',(0.,80.,0.)) ;
#384=CARTESIAN_POINT('Axis2P3D Location',(0.,0.,0.)) ;
#389=CARTESIAN_POINT('Line Origine',(0.,-35.5,0.)) ;
#400=CARTESIAN_POINT('Axis2P3D Location',(67.,-67.,0.)) ;
#404=CARTESIAN_POINT('Vertex',(67.,-58.75,0.)) ;
#406=CARTESIAN_POINT('Vertex',(67.,-75.25,0.)) ;
#409=CARTESIAN_POINT('Axis2P3D Location',(67.,-67.,0.)) ;
#418=CARTESIAN_POINT('Axis2P3D Location',(-67.,-67.,0.)) ;
#422=CARTESIAN_POINT('Vertex',(-58.75,-67.,0.)) ;
#424=CARTESIAN_POINT('Vertex',(-75.25,-67.,0.)) ;
#427=CARTESIAN_POINT('Axis2P3D Location',(-67.,-67.,0.)) ;
#437=CARTESIAN_POINT('Axis2P3D Location',(80.,35.5,0.)) ;
#442=CARTESIAN_POINT('Line Origine',(0.,35.5,0.)) ;
#447=CARTESIAN_POINT('Line Origine',(0.,35.5,-5.)) ;
#459=CARTESIAN_POINT('Axis2P3D Location',(0.,0.,-5.)) ;
#464=CARTESIAN_POINT('Line Origine',(0.,-35.5,-5.)) ;
#475=CARTESIAN_POINT('Axis2P3D Location',(0.,3.5527136788E-015,-5.)) ;
#479=CARTESIAN_POINT('Vertex',(6.9175,3.5527136788E-015,-5.)) ;
#481=CARTESIAN_POINT('Vertex',(-6.9175,2.70556425549E-015,-5.)) ;
#484=CARTESIAN_POINT('Axis2P3D Location',(0.,3.5527136788E-015,-5.)) ;
#494=CARTESIAN_POINT('Axis2P3D Location',(-80.,-35.5,0.)) ;
#506=CARTESIAN_POINT('Axis2P3D Location',(0.,3.5527136788E-015,10.)) ;
#511=CARTESIAN_POINT('Line Origine',(-6.9175,2.70556425549E-015,2.5)) ;
#516=CARTESIAN_POINT('Line Origine',(6.9175,5.24701252542E-015,2.5)) ;
#541=CARTESIAN_POINT('Axis2P3D Location',(-67.,67.,0.)) ;
#545=CARTESIAN_POINT('Vertex',(-67.,58.75,0.)) ;
#547=CARTESIAN_POINT('Vertex',(-67.,75.25,0.)) ;
#550=CARTESIAN_POINT('Axis2P3D Location',(-67.,67.,0.)) ;
#564=CARTESIAN_POINT('Axis2P3D Location',(67.,-67.,10.)) ;
#569=CARTESIAN_POINT('Line Origine',(67.,-58.75,2.50000023842)) ;
#574=CARTESIAN_POINT('Line Origine',(67.,-75.25,2.50000023842)) ;
#593=CARTESIAN_POINT('Axis2P3D Location',(-67.,-67.,10.)) ;
#598=CARTESIAN_POINT('Line Origine',(-58.75,-67.,2.50000023842)) ;
#603=CARTESIAN_POINT('Line Origine',(-75.25,-67.,2.50000023842)) ;
#622=CARTESIAN_POINT('Axis2P3D Location',(-67.,67.,10.)) ;
#627=CARTESIAN_POINT('Line Origine',(-67.,58.75,2.50000023842)) ;
#632=CARTESIAN_POINT('Line Origine',(-67.,75.25,2.50000023842)) ;
#52=DIRECTION('Axis2P3D Direction',(0.,-0.,-1.)) ;
#53=DIRECTION('Axis2P3D XDirection',(1.,0.,0.)) ;
#57=DIRECTION('Vector Direction',(0.,0.,-1.)) ;
#66=DIRECTION('Axis2P3D Direction',(0.,-0.,-1.)) ;
#73=DIRECTION('Vector Direction',(0.,0.,-1.)) ;
#80=DIRECTION('Axis2P3D Direction',(0.,-0.,-1.)) ;
#92=DIRECTION('Axis2P3D Direction',(0.,0.,1.)) ;
#93=DIRECTION('Axis2P3D XDirection',(1.,0.,0.)) ;
#97=DIRECTION('Vector Direction',(0.,-1.,0.)) ;
#106=DIRECTION('Vector Direction',(-1.,0.,0.)) ;
#113=DIRECTION('Vector Direction',(0.,1.,0.)) ;
#120=DIRECTION('Vector Direction',(1.,0.,0.)) ;
#131=DIRECTION('Axis2P3D Direction',(0.,0.,1.)) ;
#140=DIRECTION('Axis2P3D Direction',(0.,0.,1.)) ;
#149=DIRECTION('Axis2P3D Direction',(0.,0.,1.)) ;
#158=DIRECTION('Axis2P3D Direction',(0.,0.,1.)) ;
#167=DIRECTION('Axis2P3D Direction',(0.,0.,1.)) ;
#176=DIRECTION('Axis2P3D Direction',(0.,0.,1.)) ;
#185=DIRECTION('Axis2P3D Direction',(0.,0.,1.)) ;
#194=DIRECTION('Axis2P3D Direction',(0.,0.,1.)) ;
#203=DIRECTION('Axis2P3D Direction',(0.,0.,1.)) ;
#213=DIRECTION('Axis2P3D Direction',(0.,-0.,-1.)) ;
#225=DIRECTION('Axis2P3D Direction',(-1.,0.,0.)) ;
#226=DIRECTION('Axis2P3D XDirection',(0.,-1.,0.)) ;
#230=DIRECTION('Vector Direction',(0.,0.,-1.)) ;
#239=DIRECTION('Vector Direction',(0.,-1.,0.)) ;
#246=DIRECTION('Vector Direction',(0.,0.,1.)) ;
#251=DIRECTION('Vector Direction',(0.,0.,1.)) ;
#258=DIRECTION('Vector Direction',(0.,-1.,0.)) ;
#265=DIRECTION('Vector Direction',(0.,0.,-1.)) ;
#272=DIRECTION('Vector Direction',(0.,1.,0.)) ;
#288=DIRECTION('Axis2P3D Direction',(0.,1.,-0.)) ;
#289=DIRECTION('Axis2P3D XDirection',(-1.,0.,0.)) ;
#293=DIRECTION('Vector Direction',(-1.,0.,0.)) ;
#300=DIRECTION('Vector Direction',(0.,0.,1.)) ;
#312=DIRECTION('Axis2P3D Direction',(1.,0.,0.)) ;
#313=DIRECTION('Axis2P3D XDirection',(0.,1.,0.)) ;
#317=DIRECTION('Vector Direction',(0.,0.,-1.)) ;
#326=DIRECTION('Vector Direction',(0.,1.,0.)) ;
#333=DIRECTION('Vector Direction',(0.,0.,1.)) ;
#338=DIRECTION('Vector Direction',(0.,1.,0.)) ;
#345=DIRECTION('Vector Direction',(0.,0.,-1.)) ;
#352=DIRECTION('Vector Direction',(0.,-1.,0.)) ;
#368=DIRECTION('Axis2P3D Direction',(0.,-1.,0.)) ;
#369=DIRECTION('Axis2P3D XDirection',(1.,0.,0.)) ;
#373=DIRECTION('Vector Direction',(1.,0.,0.)) ;
#385=DIRECTION('Axis2P3D Direction',(0.,0.,1.)) ;
#386=DIRECTION('Axis2P3D XDirection',(1.,0.,0.)) ;
#390=DIRECTION('Vector Direction',(1.,0.,0.)) ;
#401=DIRECTION('Axis2P3D Direction',(0.,0.,1.)) ;
#410=DIRECTION('Axis2P3D Direction',(0.,0.,1.)) ;
#419=DIRECTION('Axis2P3D Direction',(0.,0.,1.)) ;
#428=DIRECTION('Axis2P3D Direction',(0.,0.,1.)) ;
#438=DIRECTION('Axis2P3D Direction',(-0.,-1.,-0.)) ;
#439=DIRECTION('Axis2P3D XDirection',(-1.,0.,0.)) ;
#443=DIRECTION('Vector Direction',(-1.,0.,0.)) ;
#448=DIRECTION('Vector Direction',(-1.,0.,0.)) ;
#460=DIRECTION('Axis2P3D Direction',(0.,0.,-1.)) ;
#461=DIRECTION('Axis2P3D XDirection',(1.,0.,0.)) ;
#465=DIRECTION('Vector Direction',(1.,0.,0.)) ;
#476=DIRECTION('Axis2P3D Direction',(0.,0.,-1.)) ;
#485=DIRECTION('Axis2P3D Direction',(0.,0.,-1.)) ;
#495=DIRECTION('Axis2P3D Direction',(-0.,1.,0.)) ;
#496=DIRECTION('Axis2P3D XDirection',(1.,0.,0.)) ;
#507=DIRECTION('Axis2P3D Direction',(0.,-0.,-1.)) ;
#508=DIRECTION('Axis2P3D XDirection',(1.,0.,0.)) ;
#512=DIRECTION('Vector Direction',(0.,0.,-1.)) ;
#517=DIRECTION('Vector Direction',(0.,0.,-1.)) ;
#542=DIRECTION('Axis2P3D Direction',(0.,0.,1.)) ;
#551=DIRECTION('Axis2P3D Direction',(0.,0.,1.)) ;
#565=DIRECTION('Axis2P3D Direction',(0.,-0.,-1.)) ;
#566=DIRECTION('Axis2P3D XDirection',(6.12323399574E-017,-1.,0.)) ;
#570=DIRECTION('Vector Direction',(0.,0.,-1.)) ;
#575=DIRECTION('Vector Direction',(0.,0.,-1.)) ;
#594=DIRECTION('Axis2P3D Direction',(-0.,0.,-1.)) ;
#595=DIRECTION('Axis2P3D XDirection',(-1.,-1.22464679915E-016,0.)) ;
#599=DIRECTION('Vector Direction',(0.,0.,-1.)) ;
#604=DIRECTION('Vector Direction',(0.,0.,-1.)) ;
#623=DIRECTION('Axis2P3D Direction',(0.,0.,-1.)) ;
#624=DIRECTION('Axis2P3D XDirection',(-1.83697019872E-016,1.,0.)) ;
#628=DIRECTION('Vector Direction',(0.,0.,-1.)) ;
#633=DIRECTION('Vector Direction',(0.,0.,-1.)) ;
#47=AXIS2_PLACEMENT_3D(' ',#46,$,$) ;
#54=AXIS2_PLACEMENT_3D('Cylinder Axis2P3D',#51,#52,#53) ;
#67=AXIS2_PLACEMENT_3D('Circle Axis2P3D',#65,#66,$) ;
#81=AXIS2_PLACEMENT_3D('Circle Axis2P3D',#79,#80,$) ;
#94=AXIS2_PLACEMENT_3D('Plane Axis2P3D',#91,#92,#93) ;
#132=AXIS2_PLACEMENT_3D('Circle Axis2P3D',#130,#131,$) ;
#141=AXIS2_PLACEMENT_3D('Circle Axis2P3D',#139,#140,$) ;
#150=AXIS2_PLACEMENT_3D('Circle Axis2P3D',#148,#149,$) ;
#159=AXIS2_PLACEMENT_3D('Circle Axis2P3D',#157,#158,$) ;
#168=AXIS2_PLACEMENT_3D('Circle Axis2P3D',#166,#167,$) ;
#177=AXIS2_PLACEMENT_3D('Circle Axis2P3D',#175,#176,$) ;
#186=AXIS2_PLACEMENT_3D('Circle Axis2P3D',#184,#185,$) ;
#195=AXIS2_PLACEMENT_3D('Circle Axis2P3D',#193,#194,$) ;
#204=AXIS2_PLACEMENT_3D('Circle Axis2P3D',#202,#203,$) ;
#214=AXIS2_PLACEMENT_3D('Circle Axis2P3D',#212,#213,$) ;
#227=AXIS2_PLACEMENT_3D('Plane Axis2P3D',#224,#225,#226) ;
#290=AXIS2_PLACEMENT_3D('Plane Axis2P3D',#287,#288,#289) ;
#314=AXIS2_PLACEMENT_3D('Plane Axis2P3D',#311,#312,#313) ;
#370=AXIS2_PLACEMENT_3D('Plane Axis2P3D',#367,#368,#369) ;
#387=AXIS2_PLACEMENT_3D('Plane Axis2P3D',#384,#385,#386) ;
#402=AXIS2_PLACEMENT_3D('Circle Axis2P3D',#400,#401,$) ;
#411=AXIS2_PLACEMENT_3D('Circle Axis2P3D',#409,#410,$) ;
#420=AXIS2_PLACEMENT_3D('Circle Axis2P3D',#418,#419,$) ;
#429=AXIS2_PLACEMENT_3D('Circle Axis2P3D',#427,#428,$) ;
#440=AXIS2_PLACEMENT_3D('Plane Axis2P3D',#437,#438,#439) ;
#462=AXIS2_PLACEMENT_3D('Plane Axis2P3D',#459,#460,#461) ;
#477=AXIS2_PLACEMENT_3D('Circle Axis2P3D',#475,#476,$) ;
#486=AXIS2_PLACEMENT_3D('Circle Axis2P3D',#484,#485,$) ;
#497=AXIS2_PLACEMENT_3D('Plane Axis2P3D',#494,#495,#496) ;
#509=AXIS2_PLACEMENT_3D('Cylinder Axis2P3D',#506,#507,#508) ;
#543=AXIS2_PLACEMENT_3D('Circle Axis2P3D',#541,#542,$) ;
#552=AXIS2_PLACEMENT_3D('Circle Axis2P3D',#550,#551,$) ;
#567=AXIS2_PLACEMENT_3D('Cylinder Axis2P3D',#564,#565,#566) ;
#596=AXIS2_PLACEMENT_3D('Cylinder Axis2P3D',#593,#594,#595) ;
#625=AXIS2_PLACEMENT_3D('Cylinder Axis2P3D',#622,#623,#624) ;
#40=PRODUCT_DEFINITION_SHAPE(' ',' ',#14) ;
#31=APPROVAL_PERSON_ORGANIZATION(#25,#21,#19) ;
#25=PERSON_AND_ORGANIZATION(#22,#23) ;
#22=PERSON(' ',' ',' ',$,$,$) ;
#23=ORGANIZATION(' ',' ',' ') ;
#21=APPROVAL(#20,' ') ;
#20=APPROVAL_STATUS('not_yet_approved') ;
#19=APPROVAL_ROLE('APPROVER') ;
#13=DATE_AND_TIME(#11,#12) ;
#12=LOCAL_TIME(18,25,31.,#10) ;
#10=COORDINATED_UNIVERSAL_TIME_OFFSET(0,0,.AHEAD.) ;
#85=ORIENTED_EDGE('',*,*,#64,.F.) ;
#86=ORIENTED_EDGE('',*,*,#71,.F.) ;
#87=ORIENTED_EDGE('',*,*,#78,.T.) ;
#88=ORIENTED_EDGE('',*,*,#83,.T.) ;
#125=ORIENTED_EDGE('',*,*,#104,.T.) ;
#126=ORIENTED_EDGE('',*,*,#111,.T.) ;
#127=ORIENTED_EDGE('',*,*,#118,.T.) ;
#128=ORIENTED_EDGE('',*,*,#123,.T.) ;
#136=ORIENTED_EDGE('',*,*,#134,.F.) ;
#137=ORIENTED_EDGE('',*,*,#83,.F.) ;
#154=ORIENTED_EDGE('',*,*,#147,.F.) ;
#155=ORIENTED_EDGE('',*,*,#152,.F.) ;
#172=ORIENTED_EDGE('',*,*,#165,.F.) ;
#173=ORIENTED_EDGE('',*,*,#170,.F.) ;
#190=ORIENTED_EDGE('',*,*,#183,.F.) ;
#191=ORIENTED_EDGE('',*,*,#188,.F.) ;
#208=ORIENTED_EDGE('',*,*,#201,.F.) ;
#209=ORIENTED_EDGE('',*,*,#206,.F.) ;
#218=ORIENTED_EDGE('',*,*,#78,.F.) ;
#219=ORIENTED_EDGE('',*,*,#216,.F.) ;
#220=ORIENTED_EDGE('',*,*,#64,.T.) ;
#221=ORIENTED_EDGE('',*,*,#134,.T.) ;
#277=ORIENTED_EDGE('',*,*,#237,.F.) ;
#278=ORIENTED_EDGE('',*,*,#244,.T.) ;
#279=ORIENTED_EDGE('',*,*,#249,.T.) ;
#280=ORIENTED_EDGE('',*,*,#104,.F.) ;
#281=ORIENTED_EDGE('',*,*,#256,.F.) ;
#282=ORIENTED_EDGE('',*,*,#263,.T.) ;
#283=ORIENTED_EDGE('',*,*,#270,.T.) ;
#284=ORIENTED_EDGE('',*,*,#275,.F.) ;
#305=ORIENTED_EDGE('',*,*,#249,.F.) ;
#306=ORIENTED_EDGE('',*,*,#298,.T.) ;
#307=ORIENTED_EDGE('',*,*,#303,.T.) ;
#308=ORIENTED_EDGE('',*,*,#111,.F.) ;
#357=ORIENTED_EDGE('',*,*,#324,.F.) ;
#358=ORIENTED_EDGE('',*,*,#331,.T.) ;
#359=ORIENTED_EDGE('',*,*,#336,.T.) ;
#360=ORIENTED_EDGE('',*,*,#118,.F.) ;
#361=ORIENTED_EDGE('',*,*,#303,.F.) ;
#362=ORIENTED_EDGE('',*,*,#343,.T.) ;
#363=ORIENTED_EDGE('',*,*,#350,.T.) ;
#364=ORIENTED_EDGE('',*,*,#355,.F.) ;
#378=ORIENTED_EDGE('',*,*,#336,.F.) ;
#379=ORIENTED_EDGE('',*,*,#376,.T.) ;
#380=ORIENTED_EDGE('',*,*,#256,.T.) ;
#381=ORIENTED_EDGE('',*,*,#123,.F.) ;
#395=ORIENTED_EDGE('',*,*,#393,.F.) ;
#396=ORIENTED_EDGE('',*,*,#343,.F.) ;
#397=ORIENTED_EDGE('',*,*,#298,.F.) ;
#398=ORIENTED_EDGE('',*,*,#244,.F.) ;
#415=ORIENTED_EDGE('',*,*,#408,.T.) ;
#416=ORIENTED_EDGE('',*,*,#413,.T.) ;
#433=ORIENTED_EDGE('',*,*,#426,.T.) ;
#434=ORIENTED_EDGE('',*,*,#431,.T.) ;
#453=ORIENTED_EDGE('',*,*,#270,.F.) ;
#454=ORIENTED_EDGE('',*,*,#446,.T.) ;
#455=ORIENTED_EDGE('',*,*,#324,.T.) ;
#456=ORIENTED_EDGE('',*,*,#451,.F.) ;
#470=ORIENTED_EDGE('',*,*,#275,.T.) ;
#471=ORIENTED_EDGE('',*,*,#451,.T.) ;
#472=ORIENTED_EDGE('',*,*,#355,.T.) ;
#473=ORIENTED_EDGE('',*,*,#468,.T.) ;
#490=ORIENTED_EDGE('',*,*,#483,.F.) ;
#491=ORIENTED_EDGE('',*,*,#488,.F.) ;
#500=ORIENTED_EDGE('',*,*,#350,.F.) ;
#501=ORIENTED_EDGE('',*,*,#393,.T.) ;
#502=ORIENTED_EDGE('',*,*,#237,.T.) ;
#503=ORIENTED_EDGE('',*,*,#468,.F.) ;
#522=ORIENTED_EDGE('',*,*,#515,.F.) ;
#523=ORIENTED_EDGE('',*,*,#488,.T.) ;
#524=ORIENTED_EDGE('',*,*,#520,.T.) ;
#525=ORIENTED_EDGE('',*,*,#152,.T.) ;
#529=ORIENTED_EDGE('',*,*,#520,.F.) ;
#530=ORIENTED_EDGE('',*,*,#483,.T.) ;
#531=ORIENTED_EDGE('',*,*,#515,.T.) ;
#532=ORIENTED_EDGE('',*,*,#147,.T.) ;
#536=ORIENTED_EDGE('',*,*,#446,.F.) ;
#537=ORIENTED_EDGE('',*,*,#263,.F.) ;
#538=ORIENTED_EDGE('',*,*,#376,.F.) ;
#539=ORIENTED_EDGE('',*,*,#331,.F.) ;
#556=ORIENTED_EDGE('',*,*,#549,.T.) ;
#557=ORIENTED_EDGE('',*,*,#554,.T.) ;
#560=ORIENTED_EDGE('',*,*,#71,.T.) ;
#561=ORIENTED_EDGE('',*,*,#216,.T.) ;
#580=ORIENTED_EDGE('',*,*,#573,.F.) ;
#581=ORIENTED_EDGE('',*,*,#413,.F.) ;
#582=ORIENTED_EDGE('',*,*,#578,.T.) ;
#583=ORIENTED_EDGE('',*,*,#165,.T.) ;
#587=ORIENTED_EDGE('',*,*,#578,.F.) ;
#588=ORIENTED_EDGE('',*,*,#408,.F.) ;
#589=ORIENTED_EDGE('',*,*,#573,.T.) ;
#590=ORIENTED_EDGE('',*,*,#170,.T.) ;
#609=ORIENTED_EDGE('',*,*,#602,.F.) ;
#610=ORIENTED_EDGE('',*,*,#431,.F.) ;
#611=ORIENTED_EDGE('',*,*,#607,.T.) ;
#612=ORIENTED_EDGE('',*,*,#183,.T.) ;
#616=ORIENTED_EDGE('',*,*,#607,.F.) ;
#617=ORIENTED_EDGE('',*,*,#426,.F.) ;
#618=ORIENTED_EDGE('',*,*,#602,.T.) ;
#619=ORIENTED_EDGE('',*,*,#188,.T.) ;
#638=ORIENTED_EDGE('',*,*,#631,.F.) ;
#639=ORIENTED_EDGE('',*,*,#554,.F.) ;
#640=ORIENTED_EDGE('',*,*,#636,.T.) ;
#641=ORIENTED_EDGE('',*,*,#201,.T.) ;
#645=ORIENTED_EDGE('',*,*,#636,.F.) ;
#646=ORIENTED_EDGE('',*,*,#549,.F.) ;
#647=ORIENTED_EDGE('',*,*,#631,.T.) ;
#648=ORIENTED_EDGE('',*,*,#206,.T.) ;
#138=FACE_BOUND('',#135,.T.) ;
#156=FACE_BOUND('',#153,.T.) ;
#174=FACE_BOUND('',#171,.T.) ;
#192=FACE_BOUND('',#189,.T.) ;
#210=FACE_BOUND('',#207,.T.) ;
#417=FACE_BOUND('',#414,.T.) ;
#435=FACE_BOUND('',#432,.T.) ;
#492=FACE_BOUND('',#489,.T.) ;
#558=FACE_BOUND('',#555,.T.) ;
#562=FACE_BOUND('',#559,.T.) ;
#50=CLOSED_SHELL('Closed Shell',(#90,#211,#223,#286,#310,#366,#383,#436,#458,#493,#505,#527,#534,#563,#585,#592,#614,#621,#643,#650)) ;
#58=VECTOR('Line Direction',#57,1.) ;
#74=VECTOR('Line Direction',#73,1.) ;
#98=VECTOR('Line Direction',#97,1.) ;
#107=VECTOR('Line Direction',#106,1.) ;
#114=VECTOR('Line Direction',#113,1.) ;
#121=VECTOR('Line Direction',#120,1.) ;
#231=VECTOR('Line Direction',#230,1.) ;
#240=VECTOR('Line Direction',#239,1.) ;
#247=VECTOR('Line Direction',#246,1.) ;
#252=VECTOR('Line Direction',#251,1.) ;
#259=VECTOR('Line Direction',#258,1.) ;
#266=VECTOR('Line Direction',#265,1.) ;
#273=VECTOR('Line Direction',#272,1.) ;
#294=VECTOR('Line Direction',#293,1.) ;
#301=VECTOR('Line Direction',#300,1.) ;
#318=VECTOR('Line Direction',#317,1.) ;
#327=VECTOR('Line Direction',#326,1.) ;
#334=VECTOR('Line Direction',#333,1.) ;
#339=VECTOR('Line Direction',#338,1.) ;
#346=VECTOR('Line Direction',#345,1.) ;
#353=VECTOR('Line Direction',#352,1.) ;
#374=VECTOR('Line Direction',#373,1.) ;
#391=VECTOR('Line Direction',#390,1.) ;
#444=VECTOR('Line Direction',#443,1.) ;
#449=VECTOR('Line Direction',#448,1.) ;
#466=VECTOR('Line Direction',#465,1.) ;
#513=VECTOR('Line Direction',#512,1.) ;
#518=VECTOR('Line Direction',#517,1.) ;
#571=VECTOR('Line Direction',#570,1.) ;
#576=VECTOR('Line Direction',#575,1.) ;
#600=VECTOR('Line Direction',#599,1.) ;
#605=VECTOR('Line Direction',#604,1.) ;
#629=VECTOR('Line Direction',#628,1.) ;
#634=VECTOR('Line Direction',#633,1.) ;
#652=ADVANCED_BREP_SHAPE_REPRESENTATION('NONE',(#651),#45) ;
#48=SHAPE_REPRESENTATION(' ',(#47),#45) ;
#90=ADVANCED_FACE('Corps principal',(#89),#55,.F.) ;
#211=ADVANCED_FACE('Corps principal',(#129,#138,#156,#174,#192,#210),#95,.T.) ;
#223=ADVANCED_FACE('Corps principal',(#222),#55,.F.) ;
#286=ADVANCED_FACE('Corps principal',(#285),#228,.T.) ;
#310=ADVANCED_FACE('Corps principal',(#309),#291,.F.) ;
#366=ADVANCED_FACE('Corps principal',(#365),#315,.T.) ;
#383=ADVANCED_FACE('Corps principal',(#382),#371,.F.) ;
#436=ADVANCED_FACE('Corps principal',(#399,#417,#435),#388,.F.) ;
#458=ADVANCED_FACE('Corps principal',(#457),#441,.F.) ;
#493=ADVANCED_FACE('Corps principal',(#474,#492),#463,.T.) ;
#505=ADVANCED_FACE('Corps principal',(#504),#498,.F.) ;
#527=ADVANCED_FACE('Corps principal',(#526),#510,.F.) ;
#534=ADVANCED_FACE('Corps principal',(#533),#510,.F.) ;
#563=ADVANCED_FACE('Corps principal',(#540,#558,#562),#388,.F.) ;
#585=ADVANCED_FACE('Corps principal',(#584),#568,.F.) ;
#592=ADVANCED_FACE('Corps principal',(#591),#568,.F.) ;
#614=ADVANCED_FACE('Corps principal',(#613),#597,.F.) ;
#621=ADVANCED_FACE('Corps principal',(#620),#597,.F.) ;
#643=ADVANCED_FACE('Corps principal',(#642),#626,.F.) ;
#650=ADVANCED_FACE('Corps principal',(#649),#626,.F.) ;
#4=APPLICATION_PROTOCOL_DEFINITION('international standard','config_control_design',1994,#1) ;
#32=APPROVAL_DATE_TIME(#13,#21) ;
#651=MANIFOLD_SOLID_BREP('Corps principal',#50) ;
#11=CALENDAR_DATE(2021,12,5) ;
#30=CC_DESIGN_APPROVAL(#21,(#16,#6,#14)) ;
#18=CC_DESIGN_DATE_AND_TIME_ASSIGNMENT(#13,#17,(#16)) ;
#29=CC_DESIGN_DATE_AND_TIME_ASSIGNMENT(#13,#28,(#14)) ;
#17=DATE_TIME_ROLE('classification_date') ;
#28=DATE_TIME_ROLE('creation_date') ;
#27=CC_DESIGN_PERSON_AND_ORGANIZATION_ASSIGNMENT(#25,#26,(#16)) ;
#33=CC_DESIGN_PERSON_AND_ORGANIZATION_ASSIGNMENT(#25,#34,(#6)) ;
#35=CC_DESIGN_PERSON_AND_ORGANIZATION_ASSIGNMENT(#25,#36,(#6,#14)) ;
#37=CC_DESIGN_PERSON_AND_ORGANIZATION_ASSIGNMENT(#25,#38,(#5)) ;
#26=PERSON_AND_ORGANIZATION_ROLE('classification_officer') ;
#34=PERSON_AND_ORGANIZATION_ROLE('design_supplier') ;
#36=PERSON_AND_ORGANIZATION_ROLE('creator') ;
#38=PERSON_AND_ORGANIZATION_ROLE('design_owner') ;
#39=CC_DESIGN_SECURITY_CLASSIFICATION(#16,(#6)) ;
#68=CIRCLE('generated circle',#67,8.25) ;
#82=CIRCLE('generated circle',#81,8.25) ;
#133=CIRCLE('generated circle',#132,8.25) ;
#142=CIRCLE('generated circle',#141,6.9175) ;
#151=CIRCLE('generated circle',#150,6.9175) ;
#160=CIRCLE('generated circle',#159,8.25) ;
#169=CIRCLE('generated circle',#168,8.25) ;
#178=CIRCLE('generated circle',#177,8.25) ;
#187=CIRCLE('generated circle',#186,8.25) ;
#196=CIRCLE('generated circle',#195,8.25) ;
#205=CIRCLE('generated circle',#204,8.25) ;
#215=CIRCLE('generated circle',#214,8.25) ;
#403=CIRCLE('generated circle',#402,8.25) ;
#412=CIRCLE('generated circle',#411,8.25) ;
#421=CIRCLE('generated circle',#420,8.25) ;
#430=CIRCLE('generated circle',#429,8.25) ;
#478=CIRCLE('generated circle',#477,6.9175) ;
#487=CIRCLE('generated circle',#486,6.9175) ;
#544=CIRCLE('generated circle',#543,8.25) ;
#553=CIRCLE('generated circle',#552,8.25) ;
#653=SHAPE_REPRESENTATION_RELATIONSHIP(' ',' ',#48,#652) ;
#55=CYLINDRICAL_SURFACE('generated cylinder',#54,8.25) ;
#510=CYLINDRICAL_SURFACE('generated cylinder',#509,6.9175) ;
#568=CYLINDRICAL_SURFACE('generated cylinder',#567,8.25) ;
#597=CYLINDRICAL_SURFACE('generated cylinder',#596,8.25) ;
#626=CYLINDRICAL_SURFACE('generated cylinder',#625,8.25) ;
#3=DESIGN_CONTEXT(' ',#1,'design') ;
#64=EDGE_CURVE('',#61,#63,#59,.F.) ;
#71=EDGE_CURVE('',#70,#61,#68,.F.) ;
#78=EDGE_CURVE('',#70,#77,#75,.F.) ;
#83=EDGE_CURVE('',#77,#63,#82,.F.) ;
#104=EDGE_CURVE('',#101,#103,#99,.T.) ;
#111=EDGE_CURVE('',#103,#110,#108,.F.) ;
#118=EDGE_CURVE('',#110,#117,#115,.T.) ;
#123=EDGE_CURVE('',#117,#101,#122,.F.) ;
#134=EDGE_CURVE('',#63,#77,#133,.T.) ;
#147=EDGE_CURVE('',#144,#146,#142,.T.) ;
#152=EDGE_CURVE('',#146,#144,#151,.T.) ;
#165=EDGE_CURVE('',#162,#164,#160,.T.) ;
#170=EDGE_CURVE('',#164,#162,#169,.T.) ;
#183=EDGE_CURVE('',#180,#182,#178,.T.) ;
#188=EDGE_CURVE('',#182,#180,#187,.T.) ;
#201=EDGE_CURVE('',#198,#200,#196,.T.) ;
#206=EDGE_CURVE('',#200,#198,#205,.T.) ;
#216=EDGE_CURVE('',#61,#70,#215,.F.) ;
#237=EDGE_CURVE('',#234,#236,#232,.T.) ;
#244=EDGE_CURVE('',#234,#243,#241,.T.) ;
#249=EDGE_CURVE('',#243,#103,#248,.T.) ;
#256=EDGE_CURVE('',#255,#101,#253,.T.) ;
#263=EDGE_CURVE('',#255,#262,#260,.T.) ;
#270=EDGE_CURVE('',#262,#269,#267,.T.) ;
#275=EDGE_CURVE('',#236,#269,#274,.T.) ;
#298=EDGE_CURVE('',#243,#297,#295,.F.) ;
#303=EDGE_CURVE('',#297,#110,#302,.T.) ;
#324=EDGE_CURVE('',#321,#323,#319,.T.) ;
#331=EDGE_CURVE('',#321,#330,#328,.T.) ;
#336=EDGE_CURVE('',#330,#117,#335,.T.) ;
#343=EDGE_CURVE('',#297,#342,#340,.T.) ;
#350=EDGE_CURVE('',#342,#349,#347,.T.) ;
#355=EDGE_CURVE('',#323,#349,#354,.T.) ;
#376=EDGE_CURVE('',#330,#255,#375,.F.) ;
#393=EDGE_CURVE('',#342,#234,#392,.F.) ;
#408=EDGE_CURVE('',#405,#407,#403,.T.) ;
#413=EDGE_CURVE('',#407,#405,#412,.T.) ;
#426=EDGE_CURVE('',#423,#425,#421,.T.) ;
#431=EDGE_CURVE('',#425,#423,#430,.T.) ;
#446=EDGE_CURVE('',#262,#321,#445,.F.) ;
#451=EDGE_CURVE('',#269,#323,#450,.F.) ;
#468=EDGE_CURVE('',#349,#236,#467,.F.) ;
#483=EDGE_CURVE('',#480,#482,#478,.T.) ;
#488=EDGE_CURVE('',#482,#480,#487,.T.) ;
#515=EDGE_CURVE('',#482,#144,#514,.F.) ;
#520=EDGE_CURVE('',#480,#146,#519,.F.) ;
#549=EDGE_CURVE('',#546,#548,#544,.T.) ;
#554=EDGE_CURVE('',#548,#546,#553,.T.) ;
#573=EDGE_CURVE('',#405,#164,#572,.F.) ;
#578=EDGE_CURVE('',#407,#162,#577,.F.) ;
#602=EDGE_CURVE('',#423,#182,#601,.F.) ;
#607=EDGE_CURVE('',#425,#180,#606,.F.) ;
#631=EDGE_CURVE('',#546,#200,#630,.F.) ;
#636=EDGE_CURVE('',#548,#198,#635,.F.) ;
#84=EDGE_LOOP('',(#85,#86,#87,#88)) ;
#124=EDGE_LOOP('',(#125,#126,#127,#128)) ;
#135=EDGE_LOOP('',(#136,#137)) ;
#153=EDGE_LOOP('',(#154,#155)) ;
#171=EDGE_LOOP('',(#172,#173)) ;
#189=EDGE_LOOP('',(#190,#191)) ;
#207=EDGE_LOOP('',(#208,#209)) ;
#217=EDGE_LOOP('',(#218,#219,#220,#221)) ;
#276=EDGE_LOOP('',(#277,#278,#279,#280,#281,#282,#283,#284)) ;
#304=EDGE_LOOP('',(#305,#306,#307,#308)) ;
#356=EDGE_LOOP('',(#357,#358,#359,#360,#361,#362,#363,#364)) ;
#377=EDGE_LOOP('',(#378,#379,#380,#381)) ;
#394=EDGE_LOOP('',(#395,#396,#397,#398)) ;
#414=EDGE_LOOP('',(#415,#416)) ;
#432=EDGE_LOOP('',(#433,#434)) ;
#452=EDGE_LOOP('',(#453,#454,#455,#456)) ;
#469=EDGE_LOOP('',(#470,#471,#472,#473)) ;
#489=EDGE_LOOP('',(#490,#491)) ;
#499=EDGE_LOOP('',(#500,#501,#502,#503)) ;
#521=EDGE_LOOP('',(#522,#523,#524,#525)) ;
#528=EDGE_LOOP('',(#529,#530,#531,#532)) ;
#535=EDGE_LOOP('',(#536,#537,#538,#539)) ;
#555=EDGE_LOOP('',(#556,#557)) ;
#559=EDGE_LOOP('',(#560,#561)) ;
#579=EDGE_LOOP('',(#580,#581,#582,#583)) ;
#586=EDGE_LOOP('',(#587,#588,#589,#590)) ;
#608=EDGE_LOOP('',(#609,#610,#611,#612)) ;
#615=EDGE_LOOP('',(#616,#617,#618,#619)) ;
#637=EDGE_LOOP('',(#638,#639,#640,#641)) ;
#644=EDGE_LOOP('',(#645,#646,#647,#648)) ;
#89=FACE_OUTER_BOUND('',#84,.T.) ;
#129=FACE_OUTER_BOUND('',#124,.T.) ;
#222=FACE_OUTER_BOUND('',#217,.T.) ;
#285=FACE_OUTER_BOUND('',#276,.T.) ;
#309=FACE_OUTER_BOUND('',#304,.T.) ;
#365=FACE_OUTER_BOUND('',#356,.T.) ;
#382=FACE_OUTER_BOUND('',#377,.T.) ;
#399=FACE_OUTER_BOUND('',#394,.T.) ;
#457=FACE_OUTER_BOUND('',#452,.T.) ;
#474=FACE_OUTER_BOUND('',#469,.T.) ;
#504=FACE_OUTER_BOUND('',#499,.T.) ;
#526=FACE_OUTER_BOUND('',#521,.T.) ;
#533=FACE_OUTER_BOUND('',#528,.T.) ;
#540=FACE_OUTER_BOUND('',#535,.T.) ;
#584=FACE_OUTER_BOUND('',#579,.T.) ;
#591=FACE_OUTER_BOUND('',#586,.T.) ;
#613=FACE_OUTER_BOUND('',#608,.T.) ;
#620=FACE_OUTER_BOUND('',#615,.T.) ;
#642=FACE_OUTER_BOUND('',#637,.T.) ;
#649=FACE_OUTER_BOUND('',#644,.T.) ;
#44=UNCERTAINTY_MEASURE_WITH_UNIT(LENGTH_MEASURE(0.005),#41,'distance_accuracy_value','CONFUSED CURVE UNCERTAINTY') ;
#59=LINE('Line',#56,#58) ;
#75=LINE('Line',#72,#74) ;
#99=LINE('Line',#96,#98) ;
#108=LINE('Line',#105,#107) ;
#115=LINE('Line',#112,#114) ;
#122=LINE('Line',#119,#121) ;
#232=LINE('Line',#229,#231) ;
#241=LINE('Line',#238,#240) ;
#248=LINE('Line',#245,#247) ;
#253=LINE('Line',#250,#252) ;
#260=LINE('Line',#257,#259) ;
#267=LINE('Line',#264,#266) ;
#274=LINE('Line',#271,#273) ;
#295=LINE('Line',#292,#294) ;
#302=LINE('Line',#299,#301) ;
#319=LINE('Line',#316,#318) ;
#328=LINE('Line',#325,#327) ;
#335=LINE('Line',#332,#334) ;
#340=LINE('Line',#337,#339) ;
#347=LINE('Line',#344,#346) ;
#354=LINE('Line',#351,#353) ;
#375=LINE('Line',#372,#374) ;
#392=LINE('Line',#389,#391) ;
#445=LINE('Line',#442,#444) ;
#450=LINE('Line',#447,#449) ;
#467=LINE('Line',#464,#466) ;
#514=LINE('Line',#511,#513) ;
#519=LINE('Line',#516,#518) ;
#572=LINE('Line',#569,#571) ;
#577=LINE('Line',#574,#576) ;
#601=LINE('Line',#598,#600) ;
#606=LINE('Line',#603,#605) ;
#630=LINE('Line',#627,#629) ;
#635=LINE('Line',#632,#634) ;
#2=MECHANICAL_CONTEXT(' ',#1,'mechanical') ;
#24=PERSONAL_ADDRESS(' ',' ',' ',' ',' ',' ',' ',' ',' ',' ',' ',' ',(#22),' ') ;
#95=PLANE('',#94) ;
#228=PLANE('',#227) ;
#291=PLANE('',#290) ;
#315=PLANE('',#314) ;
#371=PLANE('',#370) ;
#388=PLANE('',#387) ;
#441=PLANE('',#440) ;
#463=PLANE('',#462) ;
#498=PLANE('',#497) ;
#7=PRODUCT_CATEGORY('part',$) ;
#9=PRODUCT_CATEGORY_RELATIONSHIP(' ',' ',#7,#8) ;
#6=PRODUCT_DEFINITION_FORMATION_WITH_SPECIFIED_SOURCE('',' ',#5,.NOT_KNOWN.) ;
#8=PRODUCT_RELATED_PRODUCT_CATEGORY('detail',$,(#5)) ;
#49=SHAPE_DEFINITION_REPRESENTATION(#40,#48) ;
#61=VERTEX_POINT('',#60) ;
#63=VERTEX_POINT('',#62) ;
#70=VERTEX_POINT('',#69) ;
#77=VERTEX_POINT('',#76) ;
#101=VERTEX_POINT('',#100) ;
#103=VERTEX_POINT('',#102) ;
#110=VERTEX_POINT('',#109) ;
#117=VERTEX_POINT('',#116) ;
#144=VERTEX_POINT('',#143) ;
#146=VERTEX_POINT('',#145) ;
#162=VERTEX_POINT('',#161) ;
#164=VERTEX_POINT('',#163) ;
#180=VERTEX_POINT('',#179) ;
#182=VERTEX_POINT('',#181) ;
#198=VERTEX_POINT('',#197) ;
#200=VERTEX_POINT('',#199) ;
#234=VERTEX_POINT('',#233) ;
#236=VERTEX_POINT('',#235) ;
#243=VERTEX_POINT('',#242) ;
#255=VERTEX_POINT('',#254) ;
#262=VERTEX_POINT('',#261) ;
#269=VERTEX_POINT('',#268) ;
#297=VERTEX_POINT('',#296) ;
#321=VERTEX_POINT('',#320) ;
#323=VERTEX_POINT('',#322) ;
#330=VERTEX_POINT('',#329) ;
#342=VERTEX_POINT('',#341) ;
#349=VERTEX_POINT('',#348) ;
#405=VERTEX_POINT('',#404) ;
#407=VERTEX_POINT('',#406) ;
#423=VERTEX_POINT('',#422) ;
#425=VERTEX_POINT('',#424) ;
#480=VERTEX_POINT('',#479) ;
#482=VERTEX_POINT('',#481) ;
#546=VERTEX_POINT('',#545) ;
#548=VERTEX_POINT('',#547) ;
#41=(LENGTH_UNIT()NAMED_UNIT(*)SI_UNIT(.MILLI.,.METRE.)) ;
#42=(NAMED_UNIT(*)PLANE_ANGLE_UNIT()SI_UNIT($,.RADIAN.)) ;
#43=(NAMED_UNIT(*)SI_UNIT($,.STERADIAN.)SOLID_ANGLE_UNIT()) ;
#45=(GEOMETRIC_REPRESENTATION_CONTEXT(3)GLOBAL_UNCERTAINTY_ASSIGNED_CONTEXT((#44))GLOBAL_UNIT_ASSIGNED_CONTEXT((#41,#42,#43))REPRESENTATION_CONTEXT(' ',' ')) ;
ENDSEC;
END-ISO-10303-21;
