ISO-10303-21;
HEADER;
FILE_DESCRIPTION (( 'STEP AP203' ),
    '1' );
FILE_NAME ('2102-0233_A_Pion_glissiere.step',
    '2021-02-10T17:39:42',
    ( '' ),
    ( '' ),
    'SwSTEP 2.0',
    'SolidWorks 2020',
    '' );
FILE_SCHEMA (( 'CONFIG_CONTROL_DESIGN' ));
ENDSEC;

DATA;
#1 = CONICAL_SURFACE ( 'NONE', #226, 7.000000000000000000, 0.7853981633974552734 ) ;
#2 = ORIENTED_EDGE ( 'NONE', *, *, #68, .F. ) ;
#3 = CC_DESIGN_APPROVAL ( #379, ( #126 ) ) ;
#4 = DIRECTION ( 'NONE',  ( -0.0000000000000000000, -1.000000000000000000, -0.0000000000000000000 ) ) ;
#5 = EDGE_CURVE ( 'NONE', #192, #304, #210, .T. ) ;
#6 = ORIENTED_EDGE ( 'NONE', *, *, #68, .T. ) ;
#7 = DATE_TIME_ROLE ( 'classification_date' ) ;
#8 = DIRECTION ( 'NONE',  ( 0.0000000000000000000, 0.0000000000000000000, -1.000000000000000000 ) ) ;
#9 = EDGE_LOOP ( 'NONE', ( #276, #182, #151, #6 ) ) ;
#10 = EDGE_CURVE ( 'NONE', #152, #208, #280, .T. ) ;
#11 = CIRCLE ( 'NONE', #164, 5.250000000000000000 ) ;
#12 = PLANE ( 'NONE',  #136 ) ;
#13 = CARTESIAN_POINT ( 'NONE',  ( 0.0000000000000000000, 0.0000000000000000000, -5.250000000000000000 ) ) ;
#14 = ORIENTED_EDGE ( 'NONE', *, *, #85, .T. ) ;
#15 = EDGE_LOOP ( 'NONE', ( #191, #355, #73, #128 ) ) ;
#16 = AXIS2_PLACEMENT_3D ( 'NONE', #197, #266, #292 ) ;
#17 = CARTESIAN_POINT ( 'NONE',  ( 0.0000000000000000000, 0.0000000000000000000, -4.000000000000000000 ) ) ;
#18 = CC_DESIGN_DATE_AND_TIME_ASSIGNMENT ( #120, #247, ( #173 ) ) ;
#19 = DIRECTION ( 'NONE',  ( 8.659560562354994488E-17, -0.7071067811865425767, 0.7071067811865525687 ) ) ;
#20 = EDGE_CURVE ( 'NONE', #71, #304, #202, .T. ) ;
#21 = CARTESIAN_POINT ( 'NONE',  ( 0.0000000000000000000, 2.000000000000000000, -5.250000000000000000 ) ) ;
#22 = CARTESIAN_POINT ( 'NONE',  ( 0.0000000000000000000, 1.749999999999998890, 0.0000000000000000000 ) ) ;
#23 = VECTOR ( 'NONE', #48, 1000.000000000000000 ) ;
#24 = LOCAL_TIME ( 18, 39, 42.00000000000000000, #351 ) ;
#25 = CARTESIAN_POINT ( 'NONE',  ( 0.0000000000000000000, 0.0000000000000000000, 0.0000000000000000000 ) ) ;
#26 = APPROVAL_ROLE ( '' ) ;
#27 = FACE_OUTER_BOUND ( 'NONE', #333, .T. ) ;
#28 = DIRECTION ( 'NONE',  ( -0.0000000000000000000, -1.000000000000000000, -0.0000000000000000000 ) ) ;
#29 = APPLICATION_PROTOCOL_DEFINITION ( 'international standard', 'config_control_design', 1994, #184 ) ;
#30 = PERSON_AND_ORGANIZATION_ROLE ( 'creator' ) ;
#31 = APPROVAL_DATE_TIME ( #323, #379 ) ;
#32 = ORIENTED_EDGE ( 'NONE', *, *, #98, .T. ) ;
#33 = AXIS2_PLACEMENT_3D ( 'NONE', #198, #339, #167 ) ;
#34 = DIRECTION ( 'NONE',  ( 0.0000000000000000000, 0.0000000000000000000, -1.000000000000000000 ) ) ;
#35 = EDGE_LOOP ( 'NONE', ( #349, #41, #64, #102 ) ) ;
#36 = DATE_AND_TIME ( #69, #153 ) ;
#37 = LINE ( 'NONE', #359, #211 ) ;
#38 = ORIENTED_EDGE ( 'NONE', *, *, #252, .T. ) ;
#39 = CC_DESIGN_PERSON_AND_ORGANIZATION_ASSIGNMENT ( #305, #30, ( #126 ) ) ;
#40 = CARTESIAN_POINT ( 'NONE',  ( 0.0000000000000000000, 0.0000000000000000000, -4.000000000000000000 ) ) ;
#41 = ORIENTED_EDGE ( 'NONE', *, *, #172, .T. ) ;
#42 = AXIS2_PLACEMENT_3D ( 'NONE', #366, #371, #314 ) ;
#43 = CONICAL_SURFACE ( 'NONE', #171, 7.000000000000000000, 0.7853981633974552734 ) ;
#44 = ORIENTED_EDGE ( 'NONE', *, *, #10, .T. ) ;
#45 = ADVANCED_FACE ( 'NONE', ( #174 ), #1, .T. ) ;
#46 = EDGE_LOOP ( 'NONE', ( #225, #254 ) ) ;
#47 = DIRECTION ( 'NONE',  ( -0.0000000000000000000, -1.000000000000000000, -0.0000000000000000000 ) ) ;
#48 = DIRECTION ( 'NONE',  ( -0.0000000000000000000, -1.000000000000000000, -0.0000000000000000000 ) ) ;
#49 = ADVANCED_FACE ( 'NONE', ( #265, #289 ), #137, .T. ) ;
#50 = CARTESIAN_POINT ( 'NONE',  ( 0.0000000000000000000, 0.0000000000000000000, 0.0000000000000000000 ) ) ;
#51 = CYLINDRICAL_SURFACE ( 'NONE', #215, 4.000000000000000000 ) ;
#52 = PERSON_AND_ORGANIZATION ( #275, #81 ) ;
#53 = ADVANCED_FACE ( 'NONE', ( #256 ), #239, .T. ) ;
#54 = AXIS2_PLACEMENT_3D ( 'NONE', #25, #138, #291 ) ;
#55 = CIRCLE ( 'NONE', #261, 7.000000000000000000 ) ;
#56 = CARTESIAN_POINT ( 'NONE',  ( 8.419446744138050310E-16, 2.000000000000000000, 6.749999999999995559 ) ) ;
#57 = CARTESIAN_POINT ( 'NONE',  ( 4.898587196589412829E-16, 6.999999999999999112, 4.000000000000000000 ) ) ;
#58 = DIRECTION ( 'NONE',  ( 0.0000000000000000000, 0.0000000000000000000, -1.000000000000000000 ) ) ;
#59 = ADVANCED_FACE ( 'NONE', ( #113 ), #51, .F. ) ;
#60 = CARTESIAN_POINT ( 'NONE',  ( 0.0000000000000000000, 2.000000000000000000, 0.0000000000000000000 ) ) ;
#61 = APPROVAL_DATE_TIME ( #97, #345 ) ;
#62 = VECTOR ( 'NONE', #144, 1000.000000000000000 ) ;
#63 = CIRCLE ( 'NONE', #235, 6.749999999999995559 ) ;
#64 = ORIENTED_EDGE ( 'NONE', *, *, #178, .F. ) ;
#65 = PERSON_AND_ORGANIZATION_ROLE ( 'classification_officer' ) ;
#66 = PERSON_AND_ORGANIZATION ( #275, #81 ) ;
#67 = CALENDAR_DATE ( 2021, 10, 2 ) ;
#68 = EDGE_CURVE ( 'NONE', #250, #308, #100, .T. ) ;
#69 = CALENDAR_DATE ( 2021, 10, 2 ) ;
#70 = CARTESIAN_POINT ( 'NONE',  ( 6.429395695523604153E-16, 0.0000000000000000000, 5.250000000000000000 ) ) ;
#71 = VERTEX_POINT ( 'NONE', #340 ) ;
#72 = FACE_OUTER_BOUND ( 'NONE', #332, .T. ) ;
#73 = ORIENTED_EDGE ( 'NONE', *, *, #233, .T. ) ;
#74 = ORIENTED_EDGE ( 'NONE', *, *, #268, .F. ) ;
#75 = CIRCLE ( 'NONE', #259, 7.000000000000000000 ) ;
#76 = AXIS2_PLACEMENT_3D ( 'NONE', #206, #119, #325 ) ;
#77 = EDGE_LOOP ( 'NONE', ( #14, #181, #245, #213 ) ) ;
#78 = CYLINDRICAL_SURFACE ( 'NONE', #348, 4.000000000000000000 ) ;
#79 = FACE_BOUND ( 'NONE', #131, .T. ) ;
#80 = CARTESIAN_POINT ( 'NONE',  ( 0.0000000000000000000, 1.749999999999998890, 0.0000000000000000000 ) ) ;
#81 = ORGANIZATION ( 'UNSPECIFIED', 'UNSPECIFIED', '' ) ;
#82 = CC_DESIGN_PERSON_AND_ORGANIZATION_ASSIGNMENT ( #273, #271, ( #126 ) ) ;
#83 = DIRECTION ( 'NONE',  ( -0.0000000000000000000, -1.000000000000000000, -0.0000000000000000000 ) ) ;
#84 = MECHANICAL_CONTEXT ( 'NONE', #184, 'mechanical' ) ;
#85 = EDGE_CURVE ( 'NONE', #152, #286, #147, .T. ) ;
#86 = DIRECTION ( 'NONE',  ( 0.0000000000000000000, 0.0000000000000000000, -1.000000000000000000 ) ) ;
#87 = CARTESIAN_POINT ( 'NONE',  ( 0.0000000000000000000, 1.749999999999998890, 0.0000000000000000000 ) ) ;
#88 = FACE_OUTER_BOUND ( 'NONE', #272, .T. ) ;
#89 = EDGE_CURVE ( 'NONE', #161, #250, #200, .T. ) ;
#90 = CC_DESIGN_APPROVAL ( #345, ( #173 ) ) ;
#91 =( NAMED_UNIT ( * ) SI_UNIT ( $, .STERADIAN. ) SOLID_ANGLE_UNIT ( ) );
#92 = SHAPE_DEFINITION_REPRESENTATION ( #207, #283 ) ;
#93 = EDGE_CURVE ( 'NONE', #208, #103, #180, .T. ) ;
#94 = ORIENTED_EDGE ( 'NONE', *, *, #98, .F. ) ;
#95 = PERSON_AND_ORGANIZATION ( #275, #81 ) ;
#96 = CALENDAR_DATE ( 2021, 10, 2 ) ;
#97 = DATE_AND_TIME ( #326, #190 ) ;
#98 = EDGE_CURVE ( 'NONE', #282, #192, #237, .T. ) ;
#99 = DIRECTION ( 'NONE',  ( 0.0000000000000000000, -1.000000000000000000, -0.0000000000000000000 ) ) ;
#100 = CIRCLE ( 'NONE', #54, 4.000000000000000000 ) ;
#101 = APPROVAL_PERSON_ORGANIZATION ( #52, #345, #26 ) ;
#102 = ORIENTED_EDGE ( 'NONE', *, *, #233, .F. ) ;
#103 = VERTEX_POINT ( 'NONE', #294 ) ;
#104 = ORIENTED_EDGE ( 'NONE', *, *, #89, .F. ) ;
#105 = DIRECTION ( 'NONE',  ( 0.0000000000000000000, 1.000000000000000000, 0.0000000000000000000 ) ) ;
#106 = ORIENTED_EDGE ( 'NONE', *, *, #93, .T. ) ;
#107 = AXIS2_PLACEMENT_3D ( 'NONE', #224, #105, #331 ) ;
#108 = ORIENTED_EDGE ( 'NONE', *, *, #361, .T. ) ;
#109 = EDGE_CURVE ( 'NONE', #282, #71, #75, .T. ) ;
#110 = DIRECTION ( 'NONE',  ( 0.0000000000000000000, 0.0000000000000000000, -1.000000000000000000 ) ) ;
#111 = DIRECTION ( 'NONE',  ( 0.0000000000000000000, 0.0000000000000000000, 1.000000000000000000 ) ) ;
#112 = CARTESIAN_POINT ( 'NONE',  ( 0.0000000000000000000, 2.000000000000000000, 0.0000000000000000000 ) ) ;
#113 = FACE_OUTER_BOUND ( 'NONE', #9, .T. ) ;
#114 =( LENGTH_UNIT ( ) NAMED_UNIT ( * ) SI_UNIT ( .MILLI., .METRE. ) );
#115 = DIRECTION ( 'NONE',  ( 0.0000000000000000000, 1.000000000000000000, 0.0000000000000000000 ) ) ;
#116 = DIRECTION ( 'NONE',  ( 0.0000000000000000000, 0.0000000000000000000, -1.000000000000000000 ) ) ;
#117 = AXIS2_PLACEMENT_3D ( 'NONE', #315, #47, #373 ) ;
#118 = VECTOR ( 'NONE', #242, 1000.000000000000000 ) ;
#119 = DIRECTION ( 'NONE',  ( -0.0000000000000000000, -1.000000000000000000, -0.0000000000000000000 ) ) ;
#120 = DATE_AND_TIME ( #96, #24 ) ;
#121 = EDGE_LOOP ( 'NONE', ( #253, #278 ) ) ;
#122 = COORDINATED_UNIVERSAL_TIME_OFFSET ( 1, 0, .AHEAD. ) ;
#123 = PRODUCT ( '2102-0233_A_Pion_glissiere', '2102-0233_A_Pion_glissiere', '', ( #84 ) ) ;
#124 = AXIS2_PLACEMENT_3D ( 'NONE', #231, #115, #143 ) ;
#125 = CIRCLE ( 'NONE', #33, 6.749999999999995559 ) ;
#126 = PRODUCT_DEFINITION_FORMATION_WITH_SPECIFIED_SOURCE ( 'ANY', '', #123, .NOT_KNOWN. ) ;
#127 = CARTESIAN_POINT ( 'NONE',  ( 8.572527594031473190E-16, 1.749999999999998890, 7.000000000000000000 ) ) ;
#128 = ORIENTED_EDGE ( 'NONE', *, *, #109, .F. ) ;
#129 = APPROVAL_STATUS ( 'not_yet_approved' ) ;
#130 = DIRECTION ( 'NONE',  ( 0.0000000000000000000, -0.7071067811865425767, -0.7071067811865525687 ) ) ;
#131 = EDGE_LOOP ( 'NONE', ( #108, #228 ) ) ;
#132 = CARTESIAN_POINT ( 'NONE',  ( 0.0000000000000000000, 2.000000000000000000, 0.0000000000000000000 ) ) ;
#133 = VERTEX_POINT ( 'NONE', #56 ) ;
#134 = ORIENTED_EDGE ( 'NONE', *, *, #5, .F. ) ;
#135 = DIRECTION ( 'NONE',  ( -0.0000000000000000000, -1.000000000000000000, -0.0000000000000000000 ) ) ;
#136 = AXIS2_PLACEMENT_3D ( 'NONE', #145, #99, #34 ) ;
#137 = PLANE ( 'NONE',  #124 ) ;
#138 = DIRECTION ( 'NONE',  ( -0.0000000000000000000, -1.000000000000000000, -0.0000000000000000000 ) ) ;
#139 = CARTESIAN_POINT ( 'NONE',  ( 0.0000000000000000000, 0.0000000000000000000, 0.0000000000000000000 ) ) ;
#140 = FACE_OUTER_BOUND ( 'NONE', #121, .T. ) ;
#141 = AXIS2_PLACEMENT_3D ( 'NONE', #310, #135, #159 ) ;
#142 = VECTOR ( 'NONE', #19, 999.9999999999998863 ) ;
#143 = DIRECTION ( 'NONE',  ( 0.0000000000000000000, -0.0000000000000000000, 1.000000000000000000 ) ) ;
#144 = DIRECTION ( 'NONE',  ( -0.0000000000000000000, -1.000000000000000000, -0.0000000000000000000 ) ) ;
#145 = CARTESIAN_POINT ( 'NONE',  ( 0.0000000000000000000, 0.0000000000000000000, -4.000000000000000000 ) ) ;
#146 = DIRECTION ( 'NONE',  ( 0.0000000000000000000, 0.0000000000000000000, 1.000000000000000000 ) ) ;
#147 = CIRCLE ( 'NONE', #42, 5.250000000000000000 ) ;
#148 = VECTOR ( 'NONE', #130, 999.9999999999998863 ) ;
#149 = LINE ( 'NONE', #70, #118 ) ;
#150 = COORDINATED_UNIVERSAL_TIME_OFFSET ( 1, 0, .AHEAD. ) ;
#151 = ORIENTED_EDGE ( 'NONE', *, *, #89, .T. ) ;
#152 = VERTEX_POINT ( 'NONE', #297 ) ;
#153 = LOCAL_TIME ( 18, 39, 42.00000000000000000, #122 ) ;
#154 = APPROVAL_DATE_TIME ( #277, #222 ) ;
#155 = CARTESIAN_POINT ( 'NONE',  ( 0.0000000000000000000, 6.999999999999999112, 0.0000000000000000000 ) ) ;
#156 = ORIENTED_EDGE ( 'NONE', *, *, #376, .F. ) ;
#157 = ORIENTED_EDGE ( 'NONE', *, *, #281, .T. ) ;
#158 = DIRECTION ( 'NONE',  ( -0.0000000000000000000, -1.000000000000000000, -0.0000000000000000000 ) ) ;
#159 = DIRECTION ( 'NONE',  ( 0.0000000000000000000, 0.0000000000000000000, -1.000000000000000000 ) ) ;
#160 = ADVANCED_FACE ( 'NONE', ( #27 ), #78, .F. ) ;
#161 = VERTEX_POINT ( 'NONE', #163 ) ;
#162 = ORIENTED_EDGE ( 'NONE', *, *, #218, .F. ) ;
#163 = CARTESIAN_POINT ( 'NONE',  ( 0.0000000000000000000, 6.999999999999999112, -4.000000000000000000 ) ) ;
#164 = AXIS2_PLACEMENT_3D ( 'NONE', #60, #221, #8 ) ;
#165 = PLANE ( 'NONE',  #107 ) ;
#166 = CARTESIAN_POINT ( 'NONE',  ( 8.572527594031473190E-16, 1.749999999999998890, 7.000000000000000000 ) ) ;
#167 = DIRECTION ( 'NONE',  ( 0.0000000000000000000, 0.0000000000000000000, 1.000000000000000000 ) ) ;
#168 = CARTESIAN_POINT ( 'NONE',  ( 4.898587196589412829E-16, 0.0000000000000000000, 4.000000000000000000 ) ) ;
#169 = DIRECTION ( 'NONE',  ( 0.0000000000000000000, 0.0000000000000000000, -1.000000000000000000 ) ) ;
#170 = CARTESIAN_POINT ( 'NONE',  ( 0.0000000000000000000, 6.999999999999999112, 0.0000000000000000000 ) ) ;
#171 = AXIS2_PLACEMENT_3D ( 'NONE', #22, #201, #58 ) ;
#172 = EDGE_CURVE ( 'NONE', #133, #282, #195, .T. ) ;
#173 = PRODUCT_DEFINITION ( 'UNKNOWN', '', #126, #220 ) ;
#174 = FACE_OUTER_BOUND ( 'NONE', #15, .T. ) ;
#175 = DIRECTION ( 'NONE',  ( -0.0000000000000000000, -1.000000000000000000, -0.0000000000000000000 ) ) ;
#176 = DIRECTION ( 'NONE',  ( 0.0000000000000000000, 0.0000000000000000000, 1.000000000000000000 ) ) ;
#177 = DIRECTION ( 'NONE',  ( 0.0000000000000000000, 0.0000000000000000000, -1.000000000000000000 ) ) ;
#178 = EDGE_CURVE ( 'NONE', #71, #282, #189, .T. ) ;
#179 = APPROVAL_ROLE ( '' ) ;
#180 = CIRCLE ( 'NONE', #369, 5.250000000000000000 ) ;
#181 = ORIENTED_EDGE ( 'NONE', *, *, #268, .T. ) ;
#182 = ORIENTED_EDGE ( 'NONE', *, *, #361, .F. ) ;
#183 = ORIENTED_EDGE ( 'NONE', *, *, #20, .F. ) ;
#184 = APPLICATION_CONTEXT ( 'configuration controlled 3d designs of mechanical parts and assemblies' ) ;
#185 = DIRECTION ( 'NONE',  ( 0.0000000000000000000, 0.0000000000000000000, -1.000000000000000000 ) ) ;
#186 = ORIENTED_EDGE ( 'NONE', *, *, #335, .F. ) ;
#187 = ORIENTED_EDGE ( 'NONE', *, *, #205, .T. ) ;
#188 = CARTESIAN_POINT ( 'NONE',  ( 0.0000000000000000000, 2.000000000000000000, -6.749999999999995559 ) ) ;
#189 = CIRCLE ( 'NONE', #293, 7.000000000000000000 ) ;
#190 = LOCAL_TIME ( 18, 39, 42.00000000000000000, #264 ) ;
#191 = ORIENTED_EDGE ( 'NONE', *, *, #172, .F. ) ;
#192 = VERTEX_POINT ( 'NONE', #234 ) ;
#193 = CARTESIAN_POINT ( 'NONE',  ( 0.0000000000000000000, 0.0000000000000000000, 0.0000000000000000000 ) ) ;
#194 = CLOSED_SHELL ( 'NONE', ( #322, #53, #284, #160, #302, #59, #214, #318, #49, #313, #45 ) ) ;
#195 = LINE ( 'NONE', #166, #142 ) ;
#196 = AXIS2_PLACEMENT_3D ( 'NONE', #170, #243, #177 ) ;
#197 = CARTESIAN_POINT ( 'NONE',  ( 0.0000000000000000000, 0.0000000000000000000, 0.0000000000000000000 ) ) ;
#198 = CARTESIAN_POINT ( 'NONE',  ( 0.0000000000000000000, 2.000000000000000000, 0.0000000000000000000 ) ) ;
#199 = PERSON_AND_ORGANIZATION ( #275, #81 ) ;
#200 = LINE ( 'NONE', #17, #356 ) ;
#201 = DIRECTION ( 'NONE',  ( -0.0000000000000000000, -1.000000000000000000, -0.0000000000000000000 ) ) ;
#202 = LINE ( 'NONE', #374, #23 ) ;
#203 = CYLINDRICAL_SURFACE ( 'NONE', #370, 7.000000000000000000 ) ;
#204 = CC_DESIGN_SECURITY_CLASSIFICATION ( #274, ( #126 ) ) ;
#205 = EDGE_CURVE ( 'NONE', #307, #133, #125, .T. ) ;
#206 = CARTESIAN_POINT ( 'NONE',  ( 0.0000000000000000000, 0.0000000000000000000, 0.0000000000000000000 ) ) ;
#207 = PRODUCT_DEFINITION_SHAPE ( 'NONE', 'NONE',  #173 ) ;
#208 = VERTEX_POINT ( 'NONE', #21 ) ;
#209 = COORDINATED_UNIVERSAL_TIME_OFFSET ( 1, 0, .AHEAD. ) ;
#210 = CIRCLE ( 'NONE', #141, 7.000000000000000000 ) ;
#211 = VECTOR ( 'NONE', #4, 1000.000000000000000 ) ;
#212 = PERSON_AND_ORGANIZATION_ROLE ( 'creator' ) ;
#213 = ORIENTED_EDGE ( 'NONE', *, *, #10, .F. ) ;
#214 = ADVANCED_FACE ( 'NONE', ( #140, #260 ), #12, .T. ) ;
#215 = AXIS2_PLACEMENT_3D ( 'NONE', #50, #238, #86 ) ;
#216 = DIRECTION ( 'NONE',  ( 0.0000000000000000000, 0.0000000000000000000, -1.000000000000000000 ) ) ;
#217 = APPROVAL_PERSON_ORGANIZATION ( #353, #379, #179 ) ;
#218 = EDGE_CURVE ( 'NONE', #103, #208, #11, .T. ) ;
#219 = ORIENTED_EDGE ( 'NONE', *, *, #218, .T. ) ;
#220 = DESIGN_CONTEXT ( 'detailed design', #288, 'design' ) ;
#221 = DIRECTION ( 'NONE',  ( -0.0000000000000000000, -1.000000000000000000, -0.0000000000000000000 ) ) ;
#222 = APPROVAL ( #129, 'UNSPECIFIED' ) ;
#223 = EDGE_LOOP ( 'NONE', ( #187, #157 ) ) ;
#224 = CARTESIAN_POINT ( 'NONE',  ( 0.0000000000000000000, 6.999999999999999112, -5.250000000000000000 ) ) ;
#225 = ORIENTED_EDGE ( 'NONE', *, *, #85, .F. ) ;
#226 = AXIS2_PLACEMENT_3D ( 'NONE', #80, #263, #110 ) ;
#227 = AXIS2_PLACEMENT_3D ( 'NONE', #328, #158, #216 ) ;
#228 = ORIENTED_EDGE ( 'NONE', *, *, #376, .T. ) ;
#229 = CARTESIAN_POINT ( 'NONE',  ( 0.0000000000000000000, 0.0000000000000000000, -7.000000000000000000 ) ) ;
#230 = ORIENTED_EDGE ( 'NONE', *, *, #252, .F. ) ;
#231 = CARTESIAN_POINT ( 'NONE',  ( 0.0000000000000000000, 2.000000000000000000, -7.000000000000000000 ) ) ;
#232 = FACE_OUTER_BOUND ( 'NONE', #46, .T. ) ;
#233 = EDGE_CURVE ( 'NONE', #307, #71, #270, .T. ) ;
#234 = CARTESIAN_POINT ( 'NONE',  ( 8.572527594031473190E-16, 0.0000000000000000000, 7.000000000000000000 ) ) ;
#235 = AXIS2_PLACEMENT_3D ( 'NONE', #132, #377, #176 ) ;
#236 = CARTESIAN_POINT ( 'NONE',  ( 0.0000000000000000000, 0.0000000000000000000, 0.0000000000000000000 ) ) ;
#237 = LINE ( 'NONE', #316, #62 ) ;
#238 = DIRECTION ( 'NONE',  ( -0.0000000000000000000, -1.000000000000000000, -0.0000000000000000000 ) ) ;
#239 = CYLINDRICAL_SURFACE ( 'NONE', #117, 5.250000000000000000 ) ;
#240 = EDGE_CURVE ( 'NONE', #329, #308, #37, .T. ) ;
#241 = LOCAL_TIME ( 18, 39, 42.00000000000000000, #209 ) ;
#242 = DIRECTION ( 'NONE',  ( -0.0000000000000000000, -1.000000000000000000, -0.0000000000000000000 ) ) ;
#243 = DIRECTION ( 'NONE',  ( -0.0000000000000000000, -1.000000000000000000, -0.0000000000000000000 ) ) ;
#244 = PERSON_AND_ORGANIZATION ( #275, #81 ) ;
#245 = ORIENTED_EDGE ( 'NONE', *, *, #93, .F. ) ;
#246 = LOCAL_TIME ( 18, 39, 42.00000000000000000, #150 ) ;
#247 = DATE_TIME_ROLE ( 'creation_date' ) ;
#248 = ORIENTED_EDGE ( 'NONE', *, *, #109, .T. ) ;
#249 = CALENDAR_DATE ( 2021, 10, 2 ) ;
#250 = VERTEX_POINT ( 'NONE', #40 ) ;
#251 = DIRECTION ( 'NONE',  ( -0.0000000000000000000, -1.000000000000000000, -0.0000000000000000000 ) ) ;
#252 = EDGE_CURVE ( 'NONE', #308, #250, #357, .T. ) ;
#253 = ORIENTED_EDGE ( 'NONE', *, *, #335, .T. ) ;
#254 = ORIENTED_EDGE ( 'NONE', *, *, #299, .F. ) ;
#255 = CC_DESIGN_DATE_AND_TIME_ASSIGNMENT ( #36, #7, ( #274 ) ) ;
#256 = FACE_OUTER_BOUND ( 'NONE', #77, .T. ) ;
#257 = CARTESIAN_POINT ( 'NONE',  ( 0.0000000000000000000, 1.749999999999998890, 0.0000000000000000000 ) ) ;
#258 = PERSON_AND_ORGANIZATION_ROLE ( 'design_owner' ) ;
#259 = AXIS2_PLACEMENT_3D ( 'NONE', #87, #319, #287 ) ;
#260 = FACE_BOUND ( 'NONE', #362, .T. ) ;
#261 = AXIS2_PLACEMENT_3D ( 'NONE', #139, #175, #317 ) ;
#262 = DIRECTION ( 'NONE',  ( 0.0000000000000000000, 0.0000000000000000000, -1.000000000000000000 ) ) ;
#263 = DIRECTION ( 'NONE',  ( -0.0000000000000000000, -1.000000000000000000, -0.0000000000000000000 ) ) ;
#264 = COORDINATED_UNIVERSAL_TIME_OFFSET ( 1, 0, .AHEAD. ) ;
#265 = FACE_OUTER_BOUND ( 'NONE', #223, .T. ) ;
#266 = DIRECTION ( 'NONE',  ( -0.0000000000000000000, -1.000000000000000000, -0.0000000000000000000 ) ) ;
#267 = CARTESIAN_POINT ( 'NONE',  ( 0.0000000000000000000, 1.749999999999998890, -7.000000000000000000 ) ) ;
#268 = EDGE_CURVE ( 'NONE', #286, #103, #149, .T. ) ;
#269 = DIRECTION ( 'NONE',  ( 1.000000000000000000, 0.0000000000000000000, 0.0000000000000000000 ) ) ;
#270 = LINE ( 'NONE', #267, #148 ) ;
#271 = PERSON_AND_ORGANIZATION_ROLE ( 'design_supplier' ) ;
#272 = EDGE_LOOP ( 'NONE', ( #74, #363, #44, #162 ) ) ;
#273 = PERSON_AND_ORGANIZATION ( #275, #81 ) ;
#274 = SECURITY_CLASSIFICATION ( '', '', #378 ) ;
#275 = PERSON ( 'UNSPECIFIED', 'UNSPECIFIED', 'UNSPECIFIED', ('UNSPECIFIED'), ('UNSPECIFIED'), ('UNSPECIFIED') ) ;
#276 = ORIENTED_EDGE ( 'NONE', *, *, #240, .F. ) ;
#277 = DATE_AND_TIME ( #249, #241 ) ;
#278 = ORIENTED_EDGE ( 'NONE', *, *, #5, .T. ) ;
#279 = CIRCLE ( 'NONE', #295, 5.250000000000000000 ) ;
#280 = LINE ( 'NONE', #13, #347 ) ;
#281 = EDGE_CURVE ( 'NONE', #133, #307, #63, .T. ) ;
#282 = VERTEX_POINT ( 'NONE', #127 ) ;
#283 = ADVANCED_BREP_SHAPE_REPRESENTATION ( '2102-0233_A_Pion_glissiere', ( #336, #301 ), #312 ) ;
#284 = ADVANCED_FACE ( 'NONE', ( #72 ), #306, .T. ) ;
#285 = CC_DESIGN_PERSON_AND_ORGANIZATION_ASSIGNMENT ( #244, #65, ( #274 ) ) ;
#286 = VERTEX_POINT ( 'NONE', #303 ) ;
#287 = DIRECTION ( 'NONE',  ( 0.0000000000000000000, 0.0000000000000000000, 1.000000000000000000 ) ) ;
#288 = APPLICATION_CONTEXT ( 'configuration controlled 3d designs of mechanical parts and assemblies' ) ;
#289 = FACE_BOUND ( 'NONE', #360, .T. ) ;
#290 = FACE_OUTER_BOUND ( 'NONE', #334, .T. ) ;
#291 = DIRECTION ( 'NONE',  ( 0.0000000000000000000, 0.0000000000000000000, -1.000000000000000000 ) ) ;
#292 = DIRECTION ( 'NONE',  ( 0.0000000000000000000, 0.0000000000000000000, -1.000000000000000000 ) ) ;
#293 = AXIS2_PLACEMENT_3D ( 'NONE', #257, #367, #111 ) ;
#294 = CARTESIAN_POINT ( 'NONE',  ( 6.429395695523604153E-16, 2.000000000000000000, 5.250000000000000000 ) ) ;
#295 = AXIS2_PLACEMENT_3D ( 'NONE', #155, #354, #185 ) ;
#296 = APPROVAL_STATUS ( 'not_yet_approved' ) ;
#297 = CARTESIAN_POINT ( 'NONE',  ( 0.0000000000000000000, 6.999999999999999112, -5.250000000000000000 ) ) ;
#298 = CARTESIAN_POINT ( 'NONE',  ( 0.0000000000000000000, 6.999999999999999112, 0.0000000000000000000 ) ) ;
#299 = EDGE_CURVE ( 'NONE', #286, #152, #279, .T. ) ;
#300 = APPROVAL_STATUS ( 'not_yet_approved' ) ;
#301 = AXIS2_PLACEMENT_3D ( 'NONE', #368, #146, #269 ) ;
#302 = ADVANCED_FACE ( 'NONE', ( #79, #232 ), #165, .T. ) ;
#303 = CARTESIAN_POINT ( 'NONE',  ( 6.429395695523604153E-16, 6.999999999999999112, 5.250000000000000000 ) ) ;
#304 = VERTEX_POINT ( 'NONE', #229 ) ;
#305 = PERSON_AND_ORGANIZATION ( #275, #81 ) ;
#306 = CYLINDRICAL_SURFACE ( 'NONE', #76, 7.000000000000000000 ) ;
#307 = VERTEX_POINT ( 'NONE', #188 ) ;
#308 = VERTEX_POINT ( 'NONE', #168 ) ;
#309 = ORIENTED_EDGE ( 'NONE', *, *, #240, .T. ) ;
#310 = CARTESIAN_POINT ( 'NONE',  ( 0.0000000000000000000, 0.0000000000000000000, 0.0000000000000000000 ) ) ;
#311 = DIRECTION ( 'NONE',  ( 0.0000000000000000000, 0.0000000000000000000, -1.000000000000000000 ) ) ;
#312 =( GEOMETRIC_REPRESENTATION_CONTEXT ( 3 ) GLOBAL_UNCERTAINTY_ASSIGNED_CONTEXT ( ( #358 ) ) GLOBAL_UNIT_ASSIGNED_CONTEXT ( ( #114, #321, #91 ) ) REPRESENTATION_CONTEXT ( 'NONE', 'WORKASPACE' ) );
#313 = ADVANCED_FACE ( 'NONE', ( #88 ), #341, .T. ) ;
#314 = DIRECTION ( 'NONE',  ( 0.0000000000000000000, 0.0000000000000000000, -1.000000000000000000 ) ) ;
#315 = CARTESIAN_POINT ( 'NONE',  ( 0.0000000000000000000, 0.0000000000000000000, 0.0000000000000000000 ) ) ;
#316 = CARTESIAN_POINT ( 'NONE',  ( 8.572527594031473190E-16, 0.0000000000000000000, 7.000000000000000000 ) ) ;
#317 = DIRECTION ( 'NONE',  ( 0.0000000000000000000, 0.0000000000000000000, -1.000000000000000000 ) ) ;
#318 = ADVANCED_FACE ( 'NONE', ( #290 ), #203, .T. ) ;
#319 = DIRECTION ( 'NONE',  ( -0.0000000000000000000, -1.000000000000000000, -0.0000000000000000000 ) ) ;
#320 = FACE_OUTER_BOUND ( 'NONE', #35, .T. ) ;
#321 =( NAMED_UNIT ( * ) PLANE_ANGLE_UNIT ( ) SI_UNIT ( $, .RADIAN. ) );
#322 = ADVANCED_FACE ( 'NONE', ( #320 ), #43, .T. ) ;
#323 = DATE_AND_TIME ( #67, #246 ) ;
#324 = PRODUCT_RELATED_PRODUCT_CATEGORY ( 'detail', '', ( #123 ) ) ;
#325 = DIRECTION ( 'NONE',  ( 0.0000000000000000000, 0.0000000000000000000, -1.000000000000000000 ) ) ;
#326 = CALENDAR_DATE ( 2021, 10, 2 ) ;
#327 = CIRCLE ( 'NONE', #338, 4.000000000000000000 ) ;
#328 = CARTESIAN_POINT ( 'NONE',  ( 0.0000000000000000000, 0.0000000000000000000, 0.0000000000000000000 ) ) ;
#329 = VERTEX_POINT ( 'NONE', #57 ) ;
#330 = ORIENTED_EDGE ( 'NONE', *, *, #20, .T. ) ;
#331 = DIRECTION ( 'NONE',  ( 0.0000000000000000000, -0.0000000000000000000, 1.000000000000000000 ) ) ;
#332 = EDGE_LOOP ( 'NONE', ( #365, #32, #186, #183 ) ) ;
#333 = EDGE_LOOP ( 'NONE', ( #156, #309, #38, #104 ) ) ;
#334 = EDGE_LOOP ( 'NONE', ( #94, #248, #330, #134 ) ) ;
#335 = EDGE_CURVE ( 'NONE', #304, #192, #55, .T. ) ;
#336 = MANIFOLD_SOLID_BREP ( 'Chanfrein1', #194 ) ;
#337 = DIRECTION ( 'NONE',  ( -0.0000000000000000000, -1.000000000000000000, -0.0000000000000000000 ) ) ;
#338 = AXIS2_PLACEMENT_3D ( 'NONE', #298, #28, #116 ) ;
#339 = DIRECTION ( 'NONE',  ( 0.0000000000000000000, 1.000000000000000000, 0.0000000000000000000 ) ) ;
#340 = CARTESIAN_POINT ( 'NONE',  ( 0.0000000000000000000, 1.749999999999998890, -7.000000000000000000 ) ) ;
#341 = CYLINDRICAL_SURFACE ( 'NONE', #16, 5.250000000000000000 ) ;
#342 = DIRECTION ( 'NONE',  ( -0.0000000000000000000, -1.000000000000000000, -0.0000000000000000000 ) ) ;
#343 = CC_DESIGN_PERSON_AND_ORGANIZATION_ASSIGNMENT ( #95, #212, ( #173 ) ) ;
#344 = APPROVAL_PERSON_ORGANIZATION ( #66, #222, #346 ) ;
#345 = APPROVAL ( #296, 'UNSPECIFIED' ) ;
#346 = APPROVAL_ROLE ( '' ) ;
#347 = VECTOR ( 'NONE', #251, 1000.000000000000000 ) ;
#348 = AXIS2_PLACEMENT_3D ( 'NONE', #193, #337, #311 ) ;
#349 = ORIENTED_EDGE ( 'NONE', *, *, #281, .F. ) ;
#350 = CIRCLE ( 'NONE', #196, 4.000000000000000000 ) ;
#351 = COORDINATED_UNIVERSAL_TIME_OFFSET ( 1, 0, .AHEAD. ) ;
#352 = CC_DESIGN_PERSON_AND_ORGANIZATION_ASSIGNMENT ( #199, #258, ( #123 ) ) ;
#353 = PERSON_AND_ORGANIZATION ( #275, #81 ) ;
#354 = DIRECTION ( 'NONE',  ( -0.0000000000000000000, -1.000000000000000000, -0.0000000000000000000 ) ) ;
#355 = ORIENTED_EDGE ( 'NONE', *, *, #205, .F. ) ;
#356 = VECTOR ( 'NONE', #83, 1000.000000000000000 ) ;
#357 = CIRCLE ( 'NONE', #227, 4.000000000000000000 ) ;
#358 = UNCERTAINTY_MEASURE_WITH_UNIT (LENGTH_MEASURE( 1.000000000000000082E-05 ), #114, 'distance_accuracy_value', 'NONE');
#359 = CARTESIAN_POINT ( 'NONE',  ( 4.898587196589412829E-16, 0.0000000000000000000, 4.000000000000000000 ) ) ;
#360 = EDGE_LOOP ( 'NONE', ( #106, #219 ) ) ;
#361 = EDGE_CURVE ( 'NONE', #161, #329, #350, .T. ) ;
#362 = EDGE_LOOP ( 'NONE', ( #2, #230 ) ) ;
#363 = ORIENTED_EDGE ( 'NONE', *, *, #299, .T. ) ;
#364 = CC_DESIGN_APPROVAL ( #222, ( #274 ) ) ;
#365 = ORIENTED_EDGE ( 'NONE', *, *, #178, .T. ) ;
#366 = CARTESIAN_POINT ( 'NONE',  ( 0.0000000000000000000, 6.999999999999999112, 0.0000000000000000000 ) ) ;
#367 = DIRECTION ( 'NONE',  ( -0.0000000000000000000, -1.000000000000000000, -0.0000000000000000000 ) ) ;
#368 = CARTESIAN_POINT ( 'NONE',  ( 0.0000000000000000000, 0.0000000000000000000, 0.0000000000000000000 ) ) ;
#369 = AXIS2_PLACEMENT_3D ( 'NONE', #112, #342, #169 ) ;
#370 = AXIS2_PLACEMENT_3D ( 'NONE', #236, #375, #262 ) ;
#371 = DIRECTION ( 'NONE',  ( -0.0000000000000000000, -1.000000000000000000, -0.0000000000000000000 ) ) ;
#372 = APPLICATION_PROTOCOL_DEFINITION ( 'international standard', 'config_control_design', 1994, #288 ) ;
#373 = DIRECTION ( 'NONE',  ( 0.0000000000000000000, 0.0000000000000000000, -1.000000000000000000 ) ) ;
#374 = CARTESIAN_POINT ( 'NONE',  ( 0.0000000000000000000, 0.0000000000000000000, -7.000000000000000000 ) ) ;
#375 = DIRECTION ( 'NONE',  ( -0.0000000000000000000, -1.000000000000000000, -0.0000000000000000000 ) ) ;
#376 = EDGE_CURVE ( 'NONE', #329, #161, #327, .T. ) ;
#377 = DIRECTION ( 'NONE',  ( 0.0000000000000000000, 1.000000000000000000, 0.0000000000000000000 ) ) ;
#378 = SECURITY_CLASSIFICATION_LEVEL ( 'unclassified' ) ;
#379 = APPROVAL ( #300, 'UNSPECIFIED' ) ;
ENDSEC;
END-ISO-10303-21;
