                                                                        S      1
,,,6HFS CL1,33HAutoCAD 2019 - Français (French),62HAutodesk TranslationG      1
 Framework DWG producer (atf_dwg_producer),32,38,7,99,15,,1.,1,4HINCH,1,G      2
0.08,15H20210522.125439,0.000393700787401575,10000.,,7Hunknown,11,0,15H2G      3
0210522.065131;                                                         G      4
     186       1                       0                        00000000D      1
     186            -121       1       0                               0D      2
     514       2                                                00010000D      3
     514                       1       1                               0D      4
     510       3                                                00010000D      5
     510            -121       1       1                               0D      6
     510       4                                                00010000D      7
     510            -121       1       1                               0D      8
     510       5                                                00010000D      9
     510            -121       1       1                               0D     10
     510       6                                                00010000D     11
     510            -121       1       1                               0D     12
     510       7                                                00010000D     13
     510            -121       1       1                               0D     14
     510       8                                                00010000D     15
     510            -121       1       1                               0D     16
     510       9                                                00010000D     17
     510            -121       1       1                               0D     18
     510      10                                                00010000D     19
     510            -121       1       1                               0D     20
     510      11                                                00010000D     21
     510            -121       1       1                               0D     22
     510      12                                                00010000D     23
     510            -121       1       1                               0D     24
     508      13                                                00010000D     25
     508                       1       1                               0D     26
     508      14                                                00010000D     27
     508                       1       1                               0D     28
     508      15                                                00010000D     29
     508                       1       1                               0D     30
     508      16                                                00010000D     31
     508                       1       1                               0D     32
     508      17                                                00010000D     33
     508                       1       1                               0D     34
     508      18                                                00010000D     35
     508                       1       1                               0D     36
     508      19                                                00010000D     37
     508                       1       1                               0D     38
     508      20                                                00010000D     39
     508                       1       1                               0D     40
     508      21                                                00010000D     41
     508                       2       1                               0D     42
     508      23                                                00010000D     43
     508                       2       1                               0D     44
     126      25                                                00010000D     45
     126       0               3       0                               0D     46
     126      28                                                00010000D     47
     126       0               3       0                               0D     48
     126      31                                                00010000D     49
     126       0               3       0                               0D     50
     126      34                                                00010000D     51
     126       0               3       0                               0D     52
     126      37                                                00010000D     53
     126       0               3       0                               0D     54
     126      40                                                00010000D     55
     126       0               3       0                               0D     56
     126      43                                                00010000D     57
     126       0               3       0                               0D     58
     126      46                                                00010000D     59
     126       0               3       0                               0D     60
     126      49                                                00010000D     61
     126       0               3       0                               0D     62
     126      52                                                00010000D     63
     126       0               3       0                               0D     64
     126      55                                                00010000D     65
     126       0               3       0                               0D     66
     126      58                                                00010000D     67
     126       0               3       0                               0D     68
     126      61                                                00010000D     69
     126       0               3       0                               0D     70
     126      64                                                00010000D     71
     126       0               3       0                               0D     72
     126      67                                                00010000D     73
     126       0               3       0                               0D     74
     126      70                                                00010000D     75
     126       0               3       0                               0D     76
     126      73                                                00010000D     77
     126       0               7       0                               0D     78
     126      80                                                00010000D     79
     126       0               7       0                               0D     80
     126      87                                                00010000D     81
     126       0               3       0                               0D     82
     126      90                                                00010000D     83
     126       0               3       0                               0D     84
     126      93                                                00010000D     85
     126       0               3       0                               0D     86
     126      96                                                00010000D     87
     126       0               3       0                               0D     88
     126      99                                                00010000D     89
     126       0               3       0                               0D     90
     126     102                                                00010000D     91
     126       0               3       0                               0D     92
     128     105                                                00010000D     93
     128       0    -121       5       0                               0D     94
     128     110                                                00010000D     95
     128       0    -121       5       0                               0D     96
     128     115                                                00010000D     97
     128       0    -121       6       0                               0D     98
     128     121                                                00010000D     99
     128       0    -121       5       0                               0D    100
     128     126                                                00010000D    101
     128       0    -121       5       0                               0D    102
     128     131                                                00010000D    103
     128       0    -121      11       0                               0D    104
     128     142                                                00010000D    105
     128       0    -121       5       0                               0D    106
     128     147                                                00010000D    107
     128       0    -121       5       0                               0D    108
     128     152                                                00010000D    109
     128       0    -121       6       0                               0D    110
     128     158                                                00010000D    111
     128       0    -121       6       0                               0D    112
     502     164                                                00010000D    113
     502                      11       1                               0D    114
     504     175                                                00010001D    115
     504                       7       1                               0D    116
     406     182                                                00000000D    117
     406                       1      15                               0D    118
     406     183                       0                        00000000D    119
     406                       1       3                               0D    120
     314     184                                                00000200D    121
     314                       1       0                               0D    122
186,3,1,0,0,1,117;                                                     1P      1
514,10,5,1,7,1,9,1,11,1,13,1,15,1,17,1,19,1,21,1,23,1;                 3P      2
510,93,1,1,25;                                                         5P      3
510,95,1,1,27;                                                         7P      4
510,97,1,1,29;                                                         9P      5
510,99,1,1,31;                                                        11P      6
510,101,1,1,33;                                                       13P      7
510,103,1,1,35;                                                       15P      8
510,105,1,1,37;                                                       17P      9
510,107,1,1,39;                                                       19P     10
510,109,1,1,41;                                                       21P     11
510,111,1,1,43;                                                       23P     12
508,4,0,115,1,0,0,0,115,2,1,0,0,115,3,0,0,0,115,4,0,0;                25P     13
508,4,0,115,5,0,0,0,115,4,1,0,0,115,6,0,0,0,115,7,0,0;                27P     14
508,4,0,115,8,0,0,0,115,7,1,0,0,115,9,0,0,0,115,10,0,0;               29P     15
508,4,0,115,11,0,0,0,115,10,1,0,0,115,12,0,0,0,115,13,0,0;            31P     16
508,4,0,115,14,0,0,0,115,13,1,0,0,115,15,0,0,0,115,16,0,0;            33P     17
508,4,0,115,17,0,0,0,115,16,1,0,0,115,18,0,0,0,115,19,0,0;            35P     18
508,4,0,115,20,0,0,0,115,19,1,0,0,115,21,0,0,0,115,22,0,0;            37P     19
508,4,0,115,23,0,0,0,115,22,1,0,0,115,24,0,0,0,115,2,0,0;             39P     20
508,8,0,115,23,1,0,0,115,1,1,0,0,115,5,1,0,0,115,8,1,0,0,115,11,      41P     21
1,0,0,115,14,1,0,0,115,17,1,0,0,115,20,1,0;                           41P     22
508,8,0,115,24,1,0,0,115,21,1,0,0,115,18,1,0,0,115,15,1,0,0,115,      43P     23
12,1,0,0,115,9,1,0,0,115,6,1,0,0,115,3,1,0;                           43P     24
126,1,1,0,0,1,0,0.,0.,70.,70.,1.,1.,-3.8200832932489D-6,              45P     25
49.999998225072,0.,69.9999961799167,49.999998225072,0.,0.,70.,        45P     26
0.,0.,0.;                                                             45P     27
126,1,1,0,0,1,0,0.,0.,5.,5.,1.,1.,-3.8200832932489D-6,                47P     28
49.999998225072,0.,-3.8200832932489D-6,49.999998225072,5.,0.,5.,      47P     29
0.,0.,0.;                                                             47P     30
126,1,1,0,0,1,0,-70.,-70.,0.,0.,1.,1.,69.9999961799167,               49P     31
49.999998225072,5.,-3.8200832932489D-6,49.999998225072,5.,-70.,       49P     32
0.,0.,0.,0.;                                                          49P     33
126,1,1,0,0,1,0,0.,0.,5.,5.,1.,1.,69.9999961799167,                   51P     34
49.999998225072,0.,69.9999961799167,49.999998225072,5.,0.,5.,0.,      51P     35
0.,0.;                                                                51P     36
126,1,1,0,0,1,0,0.,0.,50.,50.,1.,1.,69.9999961799167,                 53P     37
49.999998225072,0.,69.9999961799167,-1.77492802322377D-6,0.,0.,       53P     38
50.,0.,0.,0.;                                                         53P     39
126,1,1,0,0,1,0,-50.,-50.,0.,0.,1.,1.,69.9999961799167,               55P     40
-1.77492802322377D-6,5.,69.9999961799167,49.999998225072,5.,          55P     41
-50.,0.,0.,0.,0.;                                                     55P     42
126,1,1,0,0,1,0,0.,0.,5.,5.,1.,1.,69.9999961799167,                   57P     43
-1.77492802322377D-6,0.,69.9999961799167,-1.77492802322377D-6,        57P     44
5.,0.,5.,0.,0.,0.;                                                    57P     45
126,1,1,0,0,1,0,0.,0.,70.,70.,1.,1.,69.9999961799167,                 59P     46
-1.77492802322377D-6,0.,-3.8200832932489D-6,                          59P     47
-1.77492802322377D-6,0.,0.,70.,0.,0.,0.;                              59P     48
126,1,1,0,0,1,0,-70.,-70.,0.,0.,1.,1.,-3.8200832932489D-6,            61P     49
-1.77492802322377D-6,5.,69.9999961799167,-1.77492802322377D-6,        61P     50
5.,-70.,0.,0.,0.,0.;                                                  61P     51
126,1,1,0,0,1,0,0.,0.,5.,5.,1.,1.,-3.8200832932489D-6,                63P     52
-1.77492802322377D-6,0.,-3.8200832932489D-6,                          63P     53
-1.77492802322377D-6,5.,0.,5.,0.,0.,0.;                               63P     54
126,1,1,0,0,1,0,0.,0.,15.,15.,1.,1.,-3.8200832932489D-6,              65P     55
-1.77492802322377D-6,0.,-3.8200832932489D-6,14.999998225072,0.,       65P     56
0.,15.,0.,0.,0.;                                                      65P     57
126,1,1,0,0,1,0,-15.,-15.,0.,0.,1.,1.,-3.8200832932489D-6,            67P     58
14.999998225072,5.,-3.8200832932489D-6,-1.77492802322377D-6,5.,       67P     59
-15.,0.,0.,0.,0.;                                                     67P     60
126,1,1,0,0,1,0,0.,0.,5.,5.,1.,1.,-3.8200832932489D-6,                69P     61
14.999998225072,0.,-3.8200832932489D-6,14.999998225072,5.,0.,5.,      69P     62
0.,0.,0.;                                                             69P     63
126,1,1,0,0,1,0,0.,0.,40.,40.,1.,1.,-3.8200832932489D-6,              71P     64
14.999998225072,0.,39.9999961799167,14.999998225072,0.,0.,40.,        71P     65
0.,0.,0.;                                                             71P     66
126,1,1,0,0,1,0,-40.,-40.,0.,0.,1.,1.,39.9999961799167,               73P     67
14.999998225072,5.,-3.8200832932489D-6,14.999998225072,5.,-40.,       73P     68
0.,0.,0.,0.;                                                          73P     69
126,1,1,0,0,1,0,0.,0.,5.,5.,1.,1.,39.9999961799167,                   75P     70
14.999998225072,0.,39.9999961799167,14.999998225072,5.,0.,5.,0.,      75P     71
0.,0.;                                                                75P     72
126,4,2,0,0,0,0,0.,0.,0.,1.57079632679492,1.57079632679492,           77P     73
3.14159265358984,3.14159265358984,3.14159265358984,1.,                77P     74
0.707106781186539,1.,0.70710678118654,1.,39.9999961799167,            77P     75
14.999998225072,0.,49.9999961799169,14.9999982250717,0.,              77P     76
49.9999961799169,24.999998225072,0.,49.9999961799169,                 77P     77
34.9999982250722,0.,39.9999961799167,34.999998225072,0.,0.,           77P     78
3.14159265358984,0.,0.,0.;                                            77P     79
126,4,2,0,0,0,0,-3.14159265358984,-3.14159265358984,                  79P     80
-3.14159265358984,-1.57079632679492,-1.57079632679492,0.,0.,0.,       79P     81
1.,0.70710678118654,1.,0.707106781186539,1.,39.9999961799167,         79P     82
34.999998225072,5.,49.9999961799169,34.9999982250722,5.,              79P     83
49.9999961799169,24.999998225072,5.,49.9999961799169,                 79P     84
14.9999982250717,5.,39.9999961799167,14.999998225072,5.,              79P     85
-3.14159265358984,0.,0.,0.,0.;                                        79P     86
126,1,1,0,0,1,0,0.,0.,5.,5.,1.,1.,39.9999961799167,                   81P     87
34.999998225072,0.,39.9999961799167,34.999998225072,5.,0.,5.,0.,      81P     88
0.,0.;                                                                81P     89
126,1,1,0,0,1,0,0.,0.,40.,40.,1.,1.,39.9999961799167,                 83P     90
34.999998225072,0.,-3.8200832932489D-6,34.999998225072,0.,0.,         83P     91
40.,0.,0.,0.;                                                         83P     92
126,1,1,0,0,1,0,-40.,-40.,0.,0.,1.,1.,-3.8200832932489D-6,            85P     93
34.999998225072,5.,39.9999961799167,34.999998225072,5.,-40.,0.,       85P     94
0.,0.,0.;                                                             85P     95
126,1,1,0,0,1,0,0.,0.,5.,5.,1.,1.,-3.8200832932489D-6,                87P     96
34.999998225072,0.,-3.8200832932489D-6,34.999998225072,5.,0.,5.,      87P     97
0.,0.,0.;                                                             87P     98
126,1,1,0,0,1,0,0.,0.,15.,15.,1.,1.,-3.8200832932489D-6,              89P     99
34.999998225072,0.,-3.8200832932489D-6,49.999998225072,0.,0.,         89P    100
15.,0.,0.,0.;                                                         89P    101
126,1,1,0,0,1,0,-15.,-15.,0.,0.,1.,1.,-3.8200832932489D-6,            91P    102
49.999998225072,5.,-3.8200832932489D-6,34.999998225072,5.,-15.,       91P    103
0.,0.,0.,0.;                                                          91P    104
128,1,1,1,1,0,0,1,0,0,-0.001,-0.001,70.001,70.001,-0.001,-0.001,      93P    105
5.001,5.001,1.,1.,1.,1.,70.0009961799167,49.999998225072,-0.001,      93P    106
-0.00100382008329802,49.999998225072,-0.001,70.0009961799167,         93P    107
49.999998225072,5.001,-0.00100382008329802,49.999998225072,           93P    108
5.001,-0.001,70.001,-0.001,5.001;                                     93P    109
128,1,1,1,1,0,0,1,0,0,-0.001,-0.001,50.001,50.001,-0.001,-0.001,      95P    110
5.001,5.001,1.,1.,1.,1.,69.9999961799167,-0.00100177492802322,        95P    111
-0.001,69.9999961799167,50.000998225072,-0.001,69.9999961799167,      95P    112
-0.00100177492802322,5.001,69.9999961799167,50.000998225072,          95P    113
5.001,-0.001,50.001,-0.001,5.001;                                     95P    114
128,1,1,1,1,0,0,1,0,0,-0.001,-0.001,70.001,70.001,-0.001,-0.001,      97P    115
5.001,5.001,1.,1.,1.,1.,-0.00100382008329325,                         97P    116
-1.77492802322377D-6,-0.001,70.0009961799167,                         97P    117
-1.77492802322377D-6,-0.001,-0.00100382008329325,                     97P    118
-1.77492802322377D-6,5.001,70.0009961799167,                          97P    119
-1.77492802322377D-6,5.001,-0.001,70.001,-0.001,5.001;                97P    120
128,1,1,1,1,0,0,1,0,0,-0.001,-0.001,15.001,15.001,-0.001,-0.001,      99P    121
5.001,5.001,1.,1.,1.,1.,-3.8200832932489D-6,15.000998225072,          99P    122
-0.001,-3.8200832932489D-6,-0.00100177492802267,-0.001,               99P    123
-3.8200832932489D-6,15.000998225072,5.001,-3.8200832932489D-6,        99P    124
-0.00100177492802267,5.001,-0.001,15.001,-0.001,5.001;                99P    125
128,1,1,1,1,0,0,1,0,0,-0.001,-0.001,40.001,40.001,-0.001,-0.001,     101P    126
5.001,5.001,1.,1.,1.,1.,40.0009961799167,14.999998225072,-0.001,     101P    127
-0.00100382008329092,14.999998225072,-0.001,40.0009961799167,        101P    128
14.999998225072,5.001,-0.00100382008329092,14.999998225072,          101P    129
5.001,-0.001,40.001,-0.001,5.001;                                    101P    130
128,1,4,1,2,0,0,0,0,0,0.,0.,0.5,0.5,0.,0.,0.,1.57079632679492,       103P    131
1.57079632679492,3.14159265358984,3.14159265358984,                  103P    132
3.14159265358984,1.,1.,0.707106781186539,0.707106781186539,1.,       103P    133
1.,0.707106781186539,0.707106781186539,1.,1.,39.9999961799167,       103P    134
14.999998225072,0.,39.9999961799167,14.999998225072,5.,              103P    135
49.9999961799168,14.9999982250716,0.,49.9999961799168,               103P    136
14.9999982250716,5.,49.9999961799169,24.9999982250717,0.,            103P    137
49.9999961799169,24.9999982250717,5.,49.9999961799173,               103P    138
34.9999982250719,0.,49.9999961799173,34.9999982250719,5.,            103P    139
39.9999961799172,34.999998225072,0.,39.9999961799172,                103P    140
34.999998225072,5.,0.,0.5,0.,3.14159265358984;                       103P    141
128,1,1,1,1,0,0,1,0,0,-0.001,-0.001,40.001,40.001,-0.001,-0.001,     105P    142
5.001,5.001,1.,1.,1.,1.,-0.00100382008329325,34.999998225072,        105P    143
-0.001,40.0009961799167,34.999998225072,-0.001,                      105P    144
-0.00100382008329325,34.999998225072,5.001,40.0009961799167,         105P    145
34.999998225072,5.001,-0.001,40.001,-0.001,5.001;                    105P    146
128,1,1,1,1,0,0,1,0,0,-0.001,-0.001,15.001,15.001,-0.001,-0.001,     107P    147
5.001,5.001,1.,1.,1.,1.,-3.8200832932489D-6,50.000998225072,         107P    148
-0.001,-3.8200832932489D-6,34.998998225072,-0.001,                   107P    149
-3.8200832932489D-6,50.000998225072,5.001,-3.8200832932489D-6,       107P    150
34.998998225072,5.001,-0.001,15.001,-0.001,5.001;                    107P    151
128,1,1,1,1,0,0,1,0,0,-34.2833969727585,-34.2833969727585,           109P    152
35.7186030272415,35.7186030272415,-25.001,-25.001,25.001,25.001,     109P    153
1.,1.,1.,1.,70.0009961799167,-0.00100177492802445,0.,                109P    154
-0.00100382008329092,-0.00100177492802445,0.,70.0009961799167,       109P    155
50.000998225072,0.,-0.00100382008329092,50.000998225072,0.,          109P    156
-34.2833969727585,35.7186030272415,-25.001,25.001;                   109P    157
128,1,1,1,1,0,0,1,0,0,-34.2833969727585,-34.2833969727585,           111P    158
35.7186030272415,35.7186030272415,-25.001,-25.001,25.001,25.001,     111P    159
1.,1.,1.,1.,-0.00100382008329092,-0.00100177492802445,5.,            111P    160
70.0009961799167,-0.00100177492802445,5.,-0.00100382008329092,       111P    161
50.000998225072,5.,70.0009961799167,50.000998225072,5.,              111P    162
-34.2833969727585,35.7186030272415,-25.001,25.001;                   111P    163
502,16,-3.8200832932489D-6,49.999998225072,0.,69.9999961799167,      113P    164
49.999998225072,0.,-3.8200832932489D-6,49.999998225072,5.,           113P    165
69.9999961799167,49.999998225072,5.,69.9999961799167,                113P    166
-1.77492802322377D-6,0.,69.9999961799167,-1.77492802322377D-6,       113P    167
5.,-3.8200832932489D-6,-1.77492802322377D-6,0.,                      113P    168
-3.8200832932489D-6,-1.77492802322377D-6,5.,-3.8200832932489D-6,     113P    169
14.999998225072,0.,-3.8200832932489D-6,14.999998225072,5.,           113P    170
39.9999961799167,14.999998225072,0.,39.9999961799167,                113P    171
14.999998225072,5.,39.9999961799167,34.999998225072,0.,              113P    172
39.9999961799167,34.999998225072,5.,-3.8200832932489D-6,             113P    173
34.999998225072,0.,-3.8200832932489D-6,34.999998225072,5.;           113P    174
504,24,45,113,1,113,2,47,113,1,113,3,49,113,4,113,3,51,113,2,        115P    175
113,4,53,113,2,113,5,55,113,6,113,4,57,113,5,113,6,59,113,5,113,     115P    176
7,61,113,8,113,6,63,113,7,113,8,65,113,7,113,9,67,113,10,113,8,      115P    177
69,113,9,113,10,71,113,9,113,11,73,113,12,113,10,75,113,11,113,      115P    178
12,77,113,11,113,13,79,113,14,113,12,81,113,13,113,14,83,113,13,     115P    179
113,15,85,113,16,113,14,87,113,15,113,16,89,113,15,113,1,91,113,     115P    180
3,113,16;                                                            115P    181
406,1,2H67;                                                          117P    182
406,2,0,1H0;                                                         119P    183
314,100.,100.,100.,;                                                 121P    184
S      1G      4D    122P    184                                        T      1
