ISO-10303-21;
HEADER;
/* Generated by software containing ST-Developer
 * from STEP Tools, Inc. (www.steptools.com) 
 */

FILE_DESCRIPTION(
/* description */ (''),
/* implementation_level */ '2;1');

FILE_NAME(
/* name */ 'C:/Users/user/OneDrive/Documents/Tuy\X\E8re inox.step',
/* time_stamp */ '2021-05-06T19:35:39+01:00',
/* author */ (''),
/* organization */ (''),
/* preprocessor_version */ 'ST-DEVELOPER v18.1',
/* originating_system */ 'Autodesk Translation Framework v10.6.0.1341',

/* authorisation */ '');

FILE_SCHEMA (('AUTOMOTIVE_DESIGN { 1 0 10303 214 3 1 1 }'));
ENDSEC;

DATA;
#10=MECHANICAL_DESIGN_GEOMETRIC_PRESENTATION_REPRESENTATION('',(#17),#599);
#11=ITEM_DEFINED_TRANSFORMATION($,$,#339,#388);
#12=(
REPRESENTATION_RELATIONSHIP($,$,#610,#609)
REPRESENTATION_RELATIONSHIP_WITH_TRANSFORMATION(#11)
SHAPE_REPRESENTATION_RELATIONSHIP()
);
#13=CONTEXT_DEPENDENT_SHAPE_REPRESENTATION(#12,#608);
#14=NEXT_ASSEMBLY_USAGE_OCCURRENCE('Composant12:1','Composant12:1',
'Composant12:1',#612,#613,'Composant12:1');
#15=SHAPE_REPRESENTATION_RELATIONSHIP('SRR','None',#610,#16);
#16=ADVANCED_BREP_SHAPE_REPRESENTATION('',(#18),#598);
#17=STYLED_ITEM('',(#624),#18);
#18=MANIFOLD_SOLID_BREP('Corps1',#325);
#19=FACE_BOUND('',#78,.T.);
#20=FACE_BOUND('',#81,.T.);
#21=FACE_BOUND('',#85,.T.);
#22=FACE_BOUND('',#88,.T.);
#23=FACE_BOUND('',#91,.T.);
#24=FACE_BOUND('',#94,.T.);
#25=FACE_BOUND('',#97,.T.);
#26=FACE_BOUND('',#100,.T.);
#27=FACE_BOUND('',#103,.T.);
#28=FACE_BOUND('',#106,.T.);
#29=PLANE('',#347);
#30=PLANE('',#351);
#31=PLANE('',#357);
#32=PLANE('',#361);
#33=PLANE('',#365);
#34=PLANE('',#369);
#35=PLANE('',#373);
#36=PLANE('',#377);
#37=PLANE('',#381);
#38=PLANE('',#385);
#39=CYLINDRICAL_SURFACE('',#343,3.4786);
#40=CYLINDRICAL_SURFACE('',#349,19.3035566881203);
#41=CYLINDRICAL_SURFACE('',#355,8.73596739974911);
#42=CYLINDRICAL_SURFACE('',#359,15.5);
#43=CYLINDRICAL_SURFACE('',#363,26.4);
#44=CYLINDRICAL_SURFACE('',#367,23.4);
#45=CYLINDRICAL_SURFACE('',#371,26.4);
#46=CYLINDRICAL_SURFACE('',#375,23.4);
#47=CYLINDRICAL_SURFACE('',#379,26.4);
#48=CYLINDRICAL_SURFACE('',#383,25.);
#49=CYLINDRICAL_SURFACE('',#387,21.);
#50=FACE_OUTER_BOUND('',#74,.T.);
#51=FACE_OUTER_BOUND('',#75,.T.);
#52=FACE_OUTER_BOUND('',#76,.T.);
#53=FACE_OUTER_BOUND('',#77,.T.);
#54=FACE_OUTER_BOUND('',#79,.T.);
#55=FACE_OUTER_BOUND('',#80,.T.);
#56=FACE_OUTER_BOUND('',#82,.T.);
#57=FACE_OUTER_BOUND('',#83,.T.);
#58=FACE_OUTER_BOUND('',#84,.T.);
#59=FACE_OUTER_BOUND('',#86,.T.);
#60=FACE_OUTER_BOUND('',#87,.T.);
#61=FACE_OUTER_BOUND('',#89,.T.);
#62=FACE_OUTER_BOUND('',#90,.T.);
#63=FACE_OUTER_BOUND('',#92,.T.);
#64=FACE_OUTER_BOUND('',#93,.T.);
#65=FACE_OUTER_BOUND('',#95,.T.);
#66=FACE_OUTER_BOUND('',#96,.T.);
#67=FACE_OUTER_BOUND('',#98,.T.);
#68=FACE_OUTER_BOUND('',#99,.T.);
#69=FACE_OUTER_BOUND('',#101,.T.);
#70=FACE_OUTER_BOUND('',#102,.T.);
#71=FACE_OUTER_BOUND('',#104,.T.);
#72=FACE_OUTER_BOUND('',#105,.T.);
#73=FACE_OUTER_BOUND('',#107,.T.);
#74=EDGE_LOOP('',(#222,#223,#224,#225));
#75=EDGE_LOOP('',(#226,#227,#228,#229));
#76=EDGE_LOOP('',(#230,#231,#232,#233));
#77=EDGE_LOOP('',(#234));
#78=EDGE_LOOP('',(#235));
#79=EDGE_LOOP('',(#236,#237,#238,#239));
#80=EDGE_LOOP('',(#240));
#81=EDGE_LOOP('',(#241));
#82=EDGE_LOOP('',(#242,#243,#244,#245));
#83=EDGE_LOOP('',(#246,#247,#248,#249));
#84=EDGE_LOOP('',(#250));
#85=EDGE_LOOP('',(#251));
#86=EDGE_LOOP('',(#252,#253,#254,#255));
#87=EDGE_LOOP('',(#256));
#88=EDGE_LOOP('',(#257));
#89=EDGE_LOOP('',(#258,#259,#260,#261));
#90=EDGE_LOOP('',(#262));
#91=EDGE_LOOP('',(#263));
#92=EDGE_LOOP('',(#264,#265,#266,#267));
#93=EDGE_LOOP('',(#268));
#94=EDGE_LOOP('',(#269));
#95=EDGE_LOOP('',(#270,#271,#272,#273));
#96=EDGE_LOOP('',(#274));
#97=EDGE_LOOP('',(#275));
#98=EDGE_LOOP('',(#276,#277,#278,#279));
#99=EDGE_LOOP('',(#280));
#100=EDGE_LOOP('',(#281));
#101=EDGE_LOOP('',(#282,#283,#284,#285));
#102=EDGE_LOOP('',(#286));
#103=EDGE_LOOP('',(#287));
#104=EDGE_LOOP('',(#288,#289,#290,#291));
#105=EDGE_LOOP('',(#292));
#106=EDGE_LOOP('',(#293));
#107=EDGE_LOOP('',(#294,#295,#296,#297));
#108=LINE('',#511,#122);
#109=LINE('',#515,#123);
#110=LINE('',#519,#124);
#111=LINE('',#527,#125);
#112=LINE('',#534,#126);
#113=LINE('',#538,#127);
#114=LINE('',#545,#128);
#115=LINE('',#552,#129);
#116=LINE('',#559,#130);
#117=LINE('',#566,#131);
#118=LINE('',#573,#132);
#119=LINE('',#580,#133);
#120=LINE('',#587,#134);
#121=LINE('',#592,#135);
#122=VECTOR('',#397,12.2393);
#123=VECTOR('',#402,3.4786);
#124=VECTOR('',#407,9.39107834406014);
#125=VECTOR('',#418,19.3035566881203);
#126=VECTOR('',#427,13.0224609314488);
#127=VECTOR('',#432,8.73596739974911);
#128=VECTOR('',#441,15.5);
#129=VECTOR('',#450,26.4);
#130=VECTOR('',#459,23.4);
#131=VECTOR('',#468,26.4);
#132=VECTOR('',#477,23.4);
#133=VECTOR('',#486,26.4);
#134=VECTOR('',#495,25.);
#135=VECTOR('',#502,21.);
#136=CIRCLE('',#341,21.);
#137=CIRCLE('',#342,3.4786);
#138=CIRCLE('',#344,3.4786);
#139=CIRCLE('',#346,15.3035566881203);
#140=CIRCLE('',#348,19.3035566881203);
#141=CIRCLE('',#350,19.3035566881203);
#142=CIRCLE('',#352,17.3089544631485);
#143=CIRCLE('',#354,8.73596739974911);
#144=CIRCLE('',#356,8.73596739974911);
#145=CIRCLE('',#358,15.5);
#146=CIRCLE('',#360,15.5);
#147=CIRCLE('',#362,26.4);
#148=CIRCLE('',#364,26.4);
#149=CIRCLE('',#366,23.4);
#150=CIRCLE('',#368,23.4);
#151=CIRCLE('',#370,26.4);
#152=CIRCLE('',#372,26.4);
#153=CIRCLE('',#374,23.4);
#154=CIRCLE('',#376,23.4);
#155=CIRCLE('',#378,26.4);
#156=CIRCLE('',#380,26.4);
#157=CIRCLE('',#382,25.);
#158=CIRCLE('',#384,25.);
#159=CIRCLE('',#386,21.);
#160=VERTEX_POINT('',#508);
#161=VERTEX_POINT('',#510);
#162=VERTEX_POINT('',#514);
#163=VERTEX_POINT('',#518);
#164=VERTEX_POINT('',#522);
#165=VERTEX_POINT('',#525);
#166=VERTEX_POINT('',#529);
#167=VERTEX_POINT('',#532);
#168=VERTEX_POINT('',#536);
#169=VERTEX_POINT('',#540);
#170=VERTEX_POINT('',#543);
#171=VERTEX_POINT('',#547);
#172=VERTEX_POINT('',#550);
#173=VERTEX_POINT('',#554);
#174=VERTEX_POINT('',#557);
#175=VERTEX_POINT('',#561);
#176=VERTEX_POINT('',#564);
#177=VERTEX_POINT('',#568);
#178=VERTEX_POINT('',#571);
#179=VERTEX_POINT('',#575);
#180=VERTEX_POINT('',#578);
#181=VERTEX_POINT('',#582);
#182=VERTEX_POINT('',#585);
#183=VERTEX_POINT('',#589);
#184=EDGE_CURVE('',#160,#160,#136,.T.);
#185=EDGE_CURVE('',#160,#161,#108,.T.);
#186=EDGE_CURVE('',#161,#161,#137,.T.);
#187=EDGE_CURVE('',#161,#162,#109,.T.);
#188=EDGE_CURVE('',#162,#162,#138,.T.);
#189=EDGE_CURVE('',#162,#163,#110,.T.);
#190=EDGE_CURVE('',#163,#163,#139,.T.);
#191=EDGE_CURVE('',#164,#164,#140,.T.);
#192=EDGE_CURVE('',#165,#165,#141,.T.);
#193=EDGE_CURVE('',#165,#164,#111,.T.);
#194=EDGE_CURVE('',#166,#166,#142,.T.);
#195=EDGE_CURVE('',#167,#167,#143,.T.);
#196=EDGE_CURVE('',#167,#166,#112,.T.);
#197=EDGE_CURVE('',#168,#168,#144,.T.);
#198=EDGE_CURVE('',#168,#167,#113,.T.);
#199=EDGE_CURVE('',#169,#169,#145,.T.);
#200=EDGE_CURVE('',#170,#170,#146,.T.);
#201=EDGE_CURVE('',#170,#169,#114,.T.);
#202=EDGE_CURVE('',#171,#171,#147,.T.);
#203=EDGE_CURVE('',#172,#172,#148,.T.);
#204=EDGE_CURVE('',#172,#171,#115,.T.);
#205=EDGE_CURVE('',#173,#173,#149,.T.);
#206=EDGE_CURVE('',#174,#174,#150,.T.);
#207=EDGE_CURVE('',#174,#173,#116,.T.);
#208=EDGE_CURVE('',#175,#175,#151,.T.);
#209=EDGE_CURVE('',#176,#176,#152,.T.);
#210=EDGE_CURVE('',#176,#175,#117,.T.);
#211=EDGE_CURVE('',#177,#177,#153,.T.);
#212=EDGE_CURVE('',#178,#178,#154,.T.);
#213=EDGE_CURVE('',#178,#177,#118,.T.);
#214=EDGE_CURVE('',#179,#179,#155,.T.);
#215=EDGE_CURVE('',#180,#180,#156,.T.);
#216=EDGE_CURVE('',#180,#179,#119,.T.);
#217=EDGE_CURVE('',#181,#181,#157,.T.);
#218=EDGE_CURVE('',#182,#182,#158,.T.);
#219=EDGE_CURVE('',#182,#181,#120,.T.);
#220=EDGE_CURVE('',#183,#183,#159,.T.);
#221=EDGE_CURVE('',#183,#160,#121,.T.);
#222=ORIENTED_EDGE('',*,*,#184,.F.);
#223=ORIENTED_EDGE('',*,*,#185,.T.);
#224=ORIENTED_EDGE('',*,*,#186,.T.);
#225=ORIENTED_EDGE('',*,*,#185,.F.);
#226=ORIENTED_EDGE('',*,*,#186,.F.);
#227=ORIENTED_EDGE('',*,*,#187,.T.);
#228=ORIENTED_EDGE('',*,*,#188,.F.);
#229=ORIENTED_EDGE('',*,*,#187,.F.);
#230=ORIENTED_EDGE('',*,*,#188,.T.);
#231=ORIENTED_EDGE('',*,*,#189,.T.);
#232=ORIENTED_EDGE('',*,*,#190,.F.);
#233=ORIENTED_EDGE('',*,*,#189,.F.);
#234=ORIENTED_EDGE('',*,*,#191,.F.);
#235=ORIENTED_EDGE('',*,*,#190,.T.);
#236=ORIENTED_EDGE('',*,*,#192,.F.);
#237=ORIENTED_EDGE('',*,*,#193,.T.);
#238=ORIENTED_EDGE('',*,*,#191,.T.);
#239=ORIENTED_EDGE('',*,*,#193,.F.);
#240=ORIENTED_EDGE('',*,*,#192,.T.);
#241=ORIENTED_EDGE('',*,*,#194,.F.);
#242=ORIENTED_EDGE('',*,*,#195,.F.);
#243=ORIENTED_EDGE('',*,*,#196,.T.);
#244=ORIENTED_EDGE('',*,*,#194,.T.);
#245=ORIENTED_EDGE('',*,*,#196,.F.);
#246=ORIENTED_EDGE('',*,*,#197,.F.);
#247=ORIENTED_EDGE('',*,*,#198,.T.);
#248=ORIENTED_EDGE('',*,*,#195,.T.);
#249=ORIENTED_EDGE('',*,*,#198,.F.);
#250=ORIENTED_EDGE('',*,*,#199,.F.);
#251=ORIENTED_EDGE('',*,*,#197,.T.);
#252=ORIENTED_EDGE('',*,*,#200,.F.);
#253=ORIENTED_EDGE('',*,*,#201,.T.);
#254=ORIENTED_EDGE('',*,*,#199,.T.);
#255=ORIENTED_EDGE('',*,*,#201,.F.);
#256=ORIENTED_EDGE('',*,*,#202,.F.);
#257=ORIENTED_EDGE('',*,*,#200,.T.);
#258=ORIENTED_EDGE('',*,*,#203,.F.);
#259=ORIENTED_EDGE('',*,*,#204,.T.);
#260=ORIENTED_EDGE('',*,*,#202,.T.);
#261=ORIENTED_EDGE('',*,*,#204,.F.);
#262=ORIENTED_EDGE('',*,*,#203,.T.);
#263=ORIENTED_EDGE('',*,*,#205,.T.);
#264=ORIENTED_EDGE('',*,*,#206,.T.);
#265=ORIENTED_EDGE('',*,*,#207,.T.);
#266=ORIENTED_EDGE('',*,*,#205,.F.);
#267=ORIENTED_EDGE('',*,*,#207,.F.);
#268=ORIENTED_EDGE('',*,*,#208,.T.);
#269=ORIENTED_EDGE('',*,*,#206,.F.);
#270=ORIENTED_EDGE('',*,*,#209,.T.);
#271=ORIENTED_EDGE('',*,*,#210,.T.);
#272=ORIENTED_EDGE('',*,*,#208,.F.);
#273=ORIENTED_EDGE('',*,*,#210,.F.);
#274=ORIENTED_EDGE('',*,*,#209,.F.);
#275=ORIENTED_EDGE('',*,*,#211,.T.);
#276=ORIENTED_EDGE('',*,*,#212,.T.);
#277=ORIENTED_EDGE('',*,*,#213,.T.);
#278=ORIENTED_EDGE('',*,*,#211,.F.);
#279=ORIENTED_EDGE('',*,*,#213,.F.);
#280=ORIENTED_EDGE('',*,*,#214,.T.);
#281=ORIENTED_EDGE('',*,*,#212,.F.);
#282=ORIENTED_EDGE('',*,*,#215,.T.);
#283=ORIENTED_EDGE('',*,*,#216,.T.);
#284=ORIENTED_EDGE('',*,*,#214,.F.);
#285=ORIENTED_EDGE('',*,*,#216,.F.);
#286=ORIENTED_EDGE('',*,*,#215,.F.);
#287=ORIENTED_EDGE('',*,*,#217,.T.);
#288=ORIENTED_EDGE('',*,*,#218,.F.);
#289=ORIENTED_EDGE('',*,*,#219,.T.);
#290=ORIENTED_EDGE('',*,*,#217,.F.);
#291=ORIENTED_EDGE('',*,*,#219,.F.);
#292=ORIENTED_EDGE('',*,*,#218,.T.);
#293=ORIENTED_EDGE('',*,*,#220,.F.);
#294=ORIENTED_EDGE('',*,*,#220,.T.);
#295=ORIENTED_EDGE('',*,*,#221,.T.);
#296=ORIENTED_EDGE('',*,*,#184,.T.);
#297=ORIENTED_EDGE('',*,*,#221,.F.);
#298=CONICAL_SURFACE('',#340,12.2393,0.524304936509267);
#299=CONICAL_SURFACE('',#345,9.39107834406014,0.209186003176315);
#300=CONICAL_SURFACE('',#353,13.0224609314488,0.209186003176313);
#301=ADVANCED_FACE('',(#50),#298,.F.);
#302=ADVANCED_FACE('',(#51),#39,.F.);
#303=ADVANCED_FACE('',(#52),#299,.F.);
#304=ADVANCED_FACE('',(#53,#19),#29,.T.);
#305=ADVANCED_FACE('',(#54),#40,.T.);
#306=ADVANCED_FACE('',(#55,#20),#30,.T.);
#307=ADVANCED_FACE('',(#56),#300,.T.);
#308=ADVANCED_FACE('',(#57),#41,.T.);
#309=ADVANCED_FACE('',(#58,#21),#31,.T.);
#310=ADVANCED_FACE('',(#59),#42,.T.);
#311=ADVANCED_FACE('',(#60,#22),#32,.T.);
#312=ADVANCED_FACE('',(#61),#43,.T.);
#313=ADVANCED_FACE('',(#62,#23),#33,.T.);
#314=ADVANCED_FACE('',(#63),#44,.T.);
#315=ADVANCED_FACE('',(#64,#24),#34,.T.);
#316=ADVANCED_FACE('',(#65),#45,.T.);
#317=ADVANCED_FACE('',(#66,#25),#35,.T.);
#318=ADVANCED_FACE('',(#67),#46,.T.);
#319=ADVANCED_FACE('',(#68,#26),#36,.T.);
#320=ADVANCED_FACE('',(#69),#47,.T.);
#321=ADVANCED_FACE('',(#70,#27),#37,.T.);
#322=ADVANCED_FACE('',(#71),#48,.T.);
#323=ADVANCED_FACE('',(#72,#28),#38,.T.);
#324=ADVANCED_FACE('',(#73),#49,.F.);
#325=CLOSED_SHELL('',(#301,#302,#303,#304,#305,#306,#307,#308,#309,#310,
#311,#312,#313,#314,#315,#316,#317,#318,#319,#320,#321,#322,#323,#324));
#326=DERIVED_UNIT_ELEMENT(#328,1.);
#327=DERIVED_UNIT_ELEMENT(#601,-3.);
#328=(
MASS_UNIT()
NAMED_UNIT(*)
SI_UNIT(.KILO.,.GRAM.)
);
#329=DERIVED_UNIT((#326,#327));
#330=MEASURE_REPRESENTATION_ITEM('density measure',
POSITIVE_RATIO_MEASURE(7990.),#329);
#331=PROPERTY_DEFINITION_REPRESENTATION(#336,#333);
#332=PROPERTY_DEFINITION_REPRESENTATION(#337,#334);
#333=REPRESENTATION('material name',(#335),#598);
#334=REPRESENTATION('density',(#330),#598);
#335=DESCRIPTIVE_REPRESENTATION_ITEM('Acier inoxydable 316L',
'Acier inoxydable 316L');
#336=PROPERTY_DEFINITION('material property','material name',#613);
#337=PROPERTY_DEFINITION('material property','density of part',#613);
#338=AXIS2_PLACEMENT_3D('placement',#505,#389,#390);
#339=AXIS2_PLACEMENT_3D('placement',#506,#391,#392);
#340=AXIS2_PLACEMENT_3D('',#507,#393,#394);
#341=AXIS2_PLACEMENT_3D('',#509,#395,#396);
#342=AXIS2_PLACEMENT_3D('',#512,#398,#399);
#343=AXIS2_PLACEMENT_3D('',#513,#400,#401);
#344=AXIS2_PLACEMENT_3D('',#516,#403,#404);
#345=AXIS2_PLACEMENT_3D('',#517,#405,#406);
#346=AXIS2_PLACEMENT_3D('',#520,#408,#409);
#347=AXIS2_PLACEMENT_3D('',#521,#410,#411);
#348=AXIS2_PLACEMENT_3D('',#523,#412,#413);
#349=AXIS2_PLACEMENT_3D('',#524,#414,#415);
#350=AXIS2_PLACEMENT_3D('',#526,#416,#417);
#351=AXIS2_PLACEMENT_3D('',#528,#419,#420);
#352=AXIS2_PLACEMENT_3D('',#530,#421,#422);
#353=AXIS2_PLACEMENT_3D('',#531,#423,#424);
#354=AXIS2_PLACEMENT_3D('',#533,#425,#426);
#355=AXIS2_PLACEMENT_3D('',#535,#428,#429);
#356=AXIS2_PLACEMENT_3D('',#537,#430,#431);
#357=AXIS2_PLACEMENT_3D('',#539,#433,#434);
#358=AXIS2_PLACEMENT_3D('',#541,#435,#436);
#359=AXIS2_PLACEMENT_3D('',#542,#437,#438);
#360=AXIS2_PLACEMENT_3D('',#544,#439,#440);
#361=AXIS2_PLACEMENT_3D('',#546,#442,#443);
#362=AXIS2_PLACEMENT_3D('',#548,#444,#445);
#363=AXIS2_PLACEMENT_3D('',#549,#446,#447);
#364=AXIS2_PLACEMENT_3D('',#551,#448,#449);
#365=AXIS2_PLACEMENT_3D('',#553,#451,#452);
#366=AXIS2_PLACEMENT_3D('',#555,#453,#454);
#367=AXIS2_PLACEMENT_3D('',#556,#455,#456);
#368=AXIS2_PLACEMENT_3D('',#558,#457,#458);
#369=AXIS2_PLACEMENT_3D('',#560,#460,#461);
#370=AXIS2_PLACEMENT_3D('',#562,#462,#463);
#371=AXIS2_PLACEMENT_3D('',#563,#464,#465);
#372=AXIS2_PLACEMENT_3D('',#565,#466,#467);
#373=AXIS2_PLACEMENT_3D('',#567,#469,#470);
#374=AXIS2_PLACEMENT_3D('',#569,#471,#472);
#375=AXIS2_PLACEMENT_3D('',#570,#473,#474);
#376=AXIS2_PLACEMENT_3D('',#572,#475,#476);
#377=AXIS2_PLACEMENT_3D('',#574,#478,#479);
#378=AXIS2_PLACEMENT_3D('',#576,#480,#481);
#379=AXIS2_PLACEMENT_3D('',#577,#482,#483);
#380=AXIS2_PLACEMENT_3D('',#579,#484,#485);
#381=AXIS2_PLACEMENT_3D('',#581,#487,#488);
#382=AXIS2_PLACEMENT_3D('',#583,#489,#490);
#383=AXIS2_PLACEMENT_3D('',#584,#491,#492);
#384=AXIS2_PLACEMENT_3D('',#586,#493,#494);
#385=AXIS2_PLACEMENT_3D('',#588,#496,#497);
#386=AXIS2_PLACEMENT_3D('',#590,#498,#499);
#387=AXIS2_PLACEMENT_3D('',#591,#500,#501);
#388=AXIS2_PLACEMENT_3D('',#593,#503,#504);
#389=DIRECTION('axis',(0.,0.,1.));
#390=DIRECTION('refdir',(1.,0.,0.));
#391=DIRECTION('axis',(0.,0.,1.));
#392=DIRECTION('refdir',(1.,0.,0.));
#393=DIRECTION('center_axis',(-1.,0.,0.));
#394=DIRECTION('ref_axis',(0.,1.,0.));
#395=DIRECTION('center_axis',(1.,0.,0.));
#396=DIRECTION('ref_axis',(0.,0.,-1.));
#397=DIRECTION('',(0.865672107430795,0.500611428571429,-6.13072183616584E-17));
#398=DIRECTION('center_axis',(1.,0.,0.));
#399=DIRECTION('ref_axis',(0.,0.,-1.));
#400=DIRECTION('center_axis',(-1.,0.,0.));
#401=DIRECTION('ref_axis',(0.,1.,0.));
#402=DIRECTION('',(1.,0.,0.));
#403=DIRECTION('center_axis',(-1.,0.,0.));
#404=DIRECTION('ref_axis',(0.,1.,3.19158001674569E-16));
#405=DIRECTION('center_axis',(1.,0.,0.));
#406=DIRECTION('ref_axis',(0.,1.,0.));
#407=DIRECTION('',(0.978200276384611,-0.207663716814159,2.54314706095503E-17));
#408=DIRECTION('center_axis',(-1.,0.,0.));
#409=DIRECTION('ref_axis',(0.,1.,1.45093463859547E-16));
#410=DIRECTION('center_axis',(1.,0.,0.));
#411=DIRECTION('ref_axis',(0.,0.,-1.));
#412=DIRECTION('center_axis',(-1.,0.,0.));
#413=DIRECTION('ref_axis',(0.,1.,1.15027820267796E-16));
#414=DIRECTION('center_axis',(-1.,0.,0.));
#415=DIRECTION('ref_axis',(0.,1.,0.));
#416=DIRECTION('center_axis',(-1.,0.,0.));
#417=DIRECTION('ref_axis',(0.,1.,1.15027820267796E-16));
#418=DIRECTION('',(1.,0.,0.));
#419=DIRECTION('center_axis',(-1.,0.,0.));
#420=DIRECTION('ref_axis',(0.,0.,1.));
#421=DIRECTION('center_axis',(-1.,0.,0.));
#422=DIRECTION('ref_axis',(0.,1.,2.56566166833212E-16));
#423=DIRECTION('center_axis',(1.,0.,0.));
#424=DIRECTION('ref_axis',(0.,1.,0.));
#425=DIRECTION('center_axis',(-1.,0.,0.));
#426=DIRECTION('ref_axis',(0.,1.,-1.27086443186251E-16));
#427=DIRECTION('',(0.978200276384611,-0.207663716814158,2.54314706095501E-17));
#428=DIRECTION('center_axis',(-1.,0.,0.));
#429=DIRECTION('ref_axis',(0.,1.,0.));
#430=DIRECTION('center_axis',(-1.,0.,0.));
#431=DIRECTION('ref_axis',(0.,1.,-1.27086443186251E-16));
#432=DIRECTION('',(1.,0.,0.));
#433=DIRECTION('center_axis',(1.,0.,0.));
#434=DIRECTION('ref_axis',(0.,0.,-1.));
#435=DIRECTION('center_axis',(-1.,0.,0.));
#436=DIRECTION('ref_axis',(0.,1.,2.86509167645202E-16));
#437=DIRECTION('center_axis',(-1.,0.,0.));
#438=DIRECTION('ref_axis',(0.,1.,0.));
#439=DIRECTION('center_axis',(-1.,0.,0.));
#440=DIRECTION('ref_axis',(0.,1.,2.86509167645202E-16));
#441=DIRECTION('',(1.,0.,0.));
#442=DIRECTION('center_axis',(1.,0.,0.));
#443=DIRECTION('ref_axis',(0.,0.,-1.));
#444=DIRECTION('center_axis',(-1.,0.,0.));
#445=DIRECTION('ref_axis',(0.,1.,1.6821560979169E-16));
#446=DIRECTION('center_axis',(-1.,0.,0.));
#447=DIRECTION('ref_axis',(0.,1.,0.));
#448=DIRECTION('center_axis',(-1.,0.,0.));
#449=DIRECTION('ref_axis',(0.,1.,1.6821560979169E-16));
#450=DIRECTION('',(1.,0.,0.));
#451=DIRECTION('center_axis',(-1.,0.,0.));
#452=DIRECTION('ref_axis',(0.,0.,1.));
#453=DIRECTION('center_axis',(1.,0.,0.));
#454=DIRECTION('ref_axis',(0.,0.,-1.));
#455=DIRECTION('center_axis',(-1.,0.,0.));
#456=DIRECTION('ref_axis',(0.,1.,0.));
#457=DIRECTION('center_axis',(1.,0.,0.));
#458=DIRECTION('ref_axis',(0.,0.,-1.));
#459=DIRECTION('',(1.,0.,0.));
#460=DIRECTION('center_axis',(1.,0.,0.));
#461=DIRECTION('ref_axis',(0.,0.,-1.));
#462=DIRECTION('center_axis',(1.,0.,0.));
#463=DIRECTION('ref_axis',(0.,0.,-1.));
#464=DIRECTION('center_axis',(-1.,0.,0.));
#465=DIRECTION('ref_axis',(0.,1.,0.));
#466=DIRECTION('center_axis',(1.,0.,0.));
#467=DIRECTION('ref_axis',(0.,0.,-1.));
#468=DIRECTION('',(1.,0.,0.));
#469=DIRECTION('center_axis',(-1.,0.,0.));
#470=DIRECTION('ref_axis',(0.,0.,1.));
#471=DIRECTION('center_axis',(1.,0.,0.));
#472=DIRECTION('ref_axis',(0.,0.,-1.));
#473=DIRECTION('center_axis',(-1.,0.,0.));
#474=DIRECTION('ref_axis',(0.,1.,0.));
#475=DIRECTION('center_axis',(1.,0.,0.));
#476=DIRECTION('ref_axis',(0.,0.,-1.));
#477=DIRECTION('',(1.,0.,0.));
#478=DIRECTION('center_axis',(1.,0.,0.));
#479=DIRECTION('ref_axis',(0.,0.,-1.));
#480=DIRECTION('center_axis',(1.,0.,0.));
#481=DIRECTION('ref_axis',(0.,0.,-1.));
#482=DIRECTION('center_axis',(-1.,0.,0.));
#483=DIRECTION('ref_axis',(0.,1.,0.));
#484=DIRECTION('center_axis',(1.,0.,0.));
#485=DIRECTION('ref_axis',(0.,0.,-1.));
#486=DIRECTION('',(1.,0.,0.));
#487=DIRECTION('center_axis',(-1.,0.,0.));
#488=DIRECTION('ref_axis',(0.,0.,1.));
#489=DIRECTION('center_axis',(1.,0.,0.));
#490=DIRECTION('ref_axis',(0.,0.,-1.));
#491=DIRECTION('center_axis',(-1.,0.,0.));
#492=DIRECTION('ref_axis',(0.,1.,0.));
#493=DIRECTION('center_axis',(-1.,0.,0.));
#494=DIRECTION('ref_axis',(0.,1.,-1.77635683940025E-16));
#495=DIRECTION('',(1.,0.,0.));
#496=DIRECTION('center_axis',(-1.,0.,0.));
#497=DIRECTION('ref_axis',(0.,0.,1.));
#498=DIRECTION('center_axis',(-1.,0.,0.));
#499=DIRECTION('ref_axis',(0.,1.,2.11471052309554E-16));
#500=DIRECTION('center_axis',(-1.,0.,0.));
#501=DIRECTION('ref_axis',(0.,1.,0.));
#502=DIRECTION('',(1.,0.,0.));
#503=DIRECTION('',(0.,0.,1.));
#504=DIRECTION('',(1.,0.,0.));
#505=CARTESIAN_POINT('',(0.,0.,0.));
#506=CARTESIAN_POINT('',(0.,0.,0.));
#507=CARTESIAN_POINT('Origin',(25.1492618800389,0.,0.));
#508=CARTESIAN_POINT('',(10.,-21.,-2.57175827820944E-15));
#509=CARTESIAN_POINT('Origin',(10.,0.,0.));
#510=CARTESIAN_POINT('',(40.2985237600778,-3.4786,-4.26005635551398E-16));
#511=CARTESIAN_POINT('',(25.1492618800389,-12.2393,1.49888195688042E-15));
#512=CARTESIAN_POINT('Origin',(40.2985237600778,0.,0.));
#513=CARTESIAN_POINT('Origin',(42.7985237600778,0.,0.));
#514=CARTESIAN_POINT('',(45.2985237600778,-3.4786,4.26005635551398E-16));
#515=CARTESIAN_POINT('',(42.7985237600778,-3.4786,4.26005635551398E-16));
#516=CARTESIAN_POINT('Origin',(45.2985237600778,2.13002817775699E-16,-1.11022302462516E-15));
#517=CARTESIAN_POINT('Origin',(73.1492626325475,0.,0.));
#518=CARTESIAN_POINT('',(101.000001505017,-15.3035566881203,1.87414517136766E-15));
#519=CARTESIAN_POINT('',(73.1492626325475,-9.39107834406014,1.15007540345953E-15));
#520=CARTESIAN_POINT('Origin',(101.000001505017,9.37072585683828E-16,-2.22044604925031E-15));
#521=CARTESIAN_POINT('Origin',(101.000001505017,19.3035566881203,0.));
#522=CARTESIAN_POINT('',(101.000001505017,-19.3035566881203,2.3640038910266E-15));
#523=CARTESIAN_POINT('Origin',(101.000001505017,-9.7323008676859E-17,-2.22044604925031E-15));
#524=CARTESIAN_POINT('Origin',(98.499999679625,0.,0.));
#525=CARTESIAN_POINT('',(95.9999978542328,-19.3035566881203,2.3640038910266E-15));
#526=CARTESIAN_POINT('Origin',(95.9999978542328,-9.7323008676859E-17,-2.22044604925031E-15));
#527=CARTESIAN_POINT('',(98.499999679625,-19.3035566881203,2.3640038910266E-15));
#528=CARTESIAN_POINT('Origin',(95.9999978542328,17.3089544631485,0.));
#529=CARTESIAN_POINT('',(95.9999978542328,-17.3089544631485,2.11973556798821E-15));
#530=CARTESIAN_POINT('Origin',(95.9999978542328,-9.19137122620341E-16,-4.44089209850063E-15));
#531=CARTESIAN_POINT('Origin',(75.8084630894866,0.,0.));
#532=CARTESIAN_POINT('',(55.6169283247404,-8.73596739974911,1.06984745135584E-15));
#533=CARTESIAN_POINT('Origin',(55.6169283247404,1.48801877867752E-15,1.11022302462516E-15));
#534=CARTESIAN_POINT('',(75.8084630894866,-13.0224609314488,1.59479150967202E-15));
#535=CARTESIAN_POINT('Origin',(46.4084642517772,0.,0.));
#536=CARTESIAN_POINT('',(37.2000001788139,-8.73596739974911,1.06984745135584E-15));
#537=CARTESIAN_POINT('Origin',(37.2000001788139,1.48801877867752E-15,1.11022302462516E-15));
#538=CARTESIAN_POINT('',(46.4084642517772,-8.73596739974911,1.06984745135584E-15));
#539=CARTESIAN_POINT('Origin',(37.2000001788139,15.5,0.));
#540=CARTESIAN_POINT('',(37.2000001788139,-15.5,1.8982025386784E-15));
#541=CARTESIAN_POINT('Origin',(37.2000001788139,-5.89667715361963E-16,-4.44089209850063E-15));
#542=CARTESIAN_POINT('Origin',(33.2000001788139,0.,0.));
#543=CARTESIAN_POINT('',(29.2000001788139,-15.5,1.8982025386784E-15));
#544=CARTESIAN_POINT('Origin',(29.2000001788139,-5.89667715361963E-16,-4.44089209850063E-15));
#545=CARTESIAN_POINT('',(33.2000001788139,-15.5,1.8982025386784E-15));
#546=CARTESIAN_POINT('Origin',(29.2000001788139,26.4,0.));
#547=CARTESIAN_POINT('',(29.2000001788139,-26.4,3.23306754974901E-15));
#548=CARTESIAN_POINT('Origin',(29.2000001788139,-1.30899579408803E-15,-4.44089209850063E-15));
#549=CARTESIAN_POINT('Origin',(27.7000001788139,0.,0.));
#550=CARTESIAN_POINT('',(26.2000001788139,-26.4,3.23306754974901E-15));
#551=CARTESIAN_POINT('Origin',(26.2000001788139,-1.30899579408803E-15,-4.44089209850063E-15));
#552=CARTESIAN_POINT('',(27.7000001788139,-26.4,3.23306754974901E-15));
#553=CARTESIAN_POINT('Origin',(26.2000001788139,23.4,0.));
#554=CARTESIAN_POINT('',(26.2000001788139,-23.4,-2.86567351000481E-15));
#555=CARTESIAN_POINT('Origin',(26.2000001788139,0.,0.));
#556=CARTESIAN_POINT('Origin',(23.4000001788139,0.,0.));
#557=CARTESIAN_POINT('',(20.6000001788139,-23.4,-2.86567351000481E-15));
#558=CARTESIAN_POINT('Origin',(20.6000001788139,0.,0.));
#559=CARTESIAN_POINT('',(23.4000001788139,-23.4,2.86567351000481E-15));
#560=CARTESIAN_POINT('Origin',(20.6000001788139,26.4,0.));
#561=CARTESIAN_POINT('',(20.6000001788139,-26.4,-3.23306754974901E-15));
#562=CARTESIAN_POINT('Origin',(20.6000001788139,0.,0.));
#563=CARTESIAN_POINT('Origin',(19.1000001788139,0.,0.));
#564=CARTESIAN_POINT('',(17.6000001788139,-26.4,-3.23306754974901E-15));
#565=CARTESIAN_POINT('Origin',(17.6000001788139,0.,0.));
#566=CARTESIAN_POINT('',(19.1000001788139,-26.4,3.23306754974901E-15));
#567=CARTESIAN_POINT('Origin',(17.6000001788139,23.4,0.));
#568=CARTESIAN_POINT('',(17.6000001788139,-23.4,-2.86567351000481E-15));
#569=CARTESIAN_POINT('Origin',(17.6000001788139,0.,0.));
#570=CARTESIAN_POINT('Origin',(14.8000001788139,0.,0.));
#571=CARTESIAN_POINT('',(12.0000001788139,-23.4,-2.86567351000481E-15));
#572=CARTESIAN_POINT('Origin',(12.0000001788139,0.,0.));
#573=CARTESIAN_POINT('',(14.8000001788139,-23.4,2.86567351000481E-15));
#574=CARTESIAN_POINT('Origin',(12.0000001788139,26.4,0.));
#575=CARTESIAN_POINT('',(12.0000001788139,-26.4,-3.23306754974901E-15));
#576=CARTESIAN_POINT('Origin',(12.0000001788139,0.,0.));
#577=CARTESIAN_POINT('Origin',(8.50000008940697,0.,0.));
#578=CARTESIAN_POINT('',(5.,-26.4,-3.23306754974901E-15));
#579=CARTESIAN_POINT('Origin',(5.,0.,0.));
#580=CARTESIAN_POINT('',(8.50000008940697,-26.4,3.23306754974901E-15));
#581=CARTESIAN_POINT('Origin',(5.,25.,0.));
#582=CARTESIAN_POINT('',(5.,-25.,-3.06161699786838E-15));
#583=CARTESIAN_POINT('Origin',(5.,0.,0.));
#584=CARTESIAN_POINT('Origin',(2.5,0.,0.));
#585=CARTESIAN_POINT('',(0.,-25.,3.06161699786838E-15));
#586=CARTESIAN_POINT('Origin',(0.,1.53080849893419E-15,4.44089209850063E-15));
#587=CARTESIAN_POINT('',(2.5,-25.,3.06161699786838E-15));
#588=CARTESIAN_POINT('Origin',(0.,21.,0.));
#589=CARTESIAN_POINT('',(0.,-21.,-2.57175827820944E-15));
#590=CARTESIAN_POINT('Origin',(0.,-5.4088732075537E-16,-4.44089209850063E-15));
#591=CARTESIAN_POINT('Origin',(5.,0.,0.));
#592=CARTESIAN_POINT('',(5.,-21.,2.57175827820944E-15));
#593=CARTESIAN_POINT('',(0.,0.,0.));
#594=UNCERTAINTY_MEASURE_WITH_UNIT(LENGTH_MEASURE(0.01),#600,
'DISTANCE_ACCURACY_VALUE',
'Maximum model space distance between geometric entities at asserted c
onnectivities');
#595=UNCERTAINTY_MEASURE_WITH_UNIT(LENGTH_MEASURE(0.01),#600,
'DISTANCE_ACCURACY_VALUE',
'Maximum model space distance between geometric entities at asserted c
onnectivities');
#596=UNCERTAINTY_MEASURE_WITH_UNIT(LENGTH_MEASURE(0.01),#600,
'DISTANCE_ACCURACY_VALUE',
'Maximum model space distance between geometric entities at asserted c
onnectivities');
#597=(
GEOMETRIC_REPRESENTATION_CONTEXT(3)
GLOBAL_UNCERTAINTY_ASSIGNED_CONTEXT((#594))
GLOBAL_UNIT_ASSIGNED_CONTEXT((#600,#602,#603))
REPRESENTATION_CONTEXT('','3D')
);
#598=(
GEOMETRIC_REPRESENTATION_CONTEXT(3)
GLOBAL_UNCERTAINTY_ASSIGNED_CONTEXT((#595))
GLOBAL_UNIT_ASSIGNED_CONTEXT((#600,#602,#603))
REPRESENTATION_CONTEXT('','3D')
);
#599=(
GEOMETRIC_REPRESENTATION_CONTEXT(3)
GLOBAL_UNCERTAINTY_ASSIGNED_CONTEXT((#596))
GLOBAL_UNIT_ASSIGNED_CONTEXT((#600,#602,#603))
REPRESENTATION_CONTEXT('','3D')
);
#600=(
LENGTH_UNIT()
NAMED_UNIT(*)
SI_UNIT(.MILLI.,.METRE.)
);
#601=(
LENGTH_UNIT()
NAMED_UNIT(*)
SI_UNIT($,.METRE.)
);
#602=(
NAMED_UNIT(*)
PLANE_ANGLE_UNIT()
SI_UNIT($,.RADIAN.)
);
#603=(
NAMED_UNIT(*)
SI_UNIT($,.STERADIAN.)
SOLID_ANGLE_UNIT()
);
#604=SHAPE_DEFINITION_REPRESENTATION(#606,#609);
#605=SHAPE_DEFINITION_REPRESENTATION(#607,#610);
#606=PRODUCT_DEFINITION_SHAPE('',$,#612);
#607=PRODUCT_DEFINITION_SHAPE('',$,#613);
#608=PRODUCT_DEFINITION_SHAPE($,$,#14);
#609=SHAPE_REPRESENTATION('',(#338,#388),#597);
#610=SHAPE_REPRESENTATION('',(#339),#598);
#611=PRODUCT_DEFINITION_CONTEXT('part definition',#619,'design');
#612=PRODUCT_DEFINITION('(Non enregistr\X\E9)','(Non enregistr\X\E9)',#614,
#611);
#613=PRODUCT_DEFINITION('Composant12','Composant12',#615,#611);
#614=PRODUCT_DEFINITION_FORMATION('',$,#621);
#615=PRODUCT_DEFINITION_FORMATION('',$,#622);
#616=PRODUCT_RELATED_PRODUCT_CATEGORY('(Non enregistr\X\E9)',
'(Non enregistr\X\E9)',(#621));
#617=PRODUCT_RELATED_PRODUCT_CATEGORY('Composant12','Composant12',(#622));
#618=APPLICATION_PROTOCOL_DEFINITION('international standard',
'automotive_design',2009,#619);
#619=APPLICATION_CONTEXT(
'Core Data for Automotive Mechanical Design Process');
#620=PRODUCT_CONTEXT('part definition',#619,'mechanical');
#621=PRODUCT('(Non enregistr\X\E9)','(Non enregistr\X\E9)',$,(#620));
#622=PRODUCT('Composant12','Composant12',$,(#620));
#623=PRESENTATION_STYLE_ASSIGNMENT((#625));
#624=PRESENTATION_STYLE_ASSIGNMENT((#626));
#625=SURFACE_STYLE_USAGE(.BOTH.,#627);
#626=SURFACE_STYLE_USAGE(.BOTH.,#628);
#627=SURFACE_SIDE_STYLE('',(#629));
#628=SURFACE_SIDE_STYLE('',(#630));
#629=SURFACE_STYLE_FILL_AREA(#631);
#630=SURFACE_STYLE_FILL_AREA(#632);
#631=FILL_AREA_STYLE('Acier - Satin\X\E9',(#633));
#632=FILL_AREA_STYLE('Acier inoxydable - Satin\X\E9',(#634));
#633=FILL_AREA_STYLE_COLOUR('Acier - Satin\X\E9',#635);
#634=FILL_AREA_STYLE_COLOUR('Acier inoxydable - Satin\X\E9',#636);
#635=COLOUR_RGB('Acier - Satin\X\E9',0.627450980392157,0.627450980392157,
0.627450980392157);
#636=COLOUR_RGB('Acier inoxydable - Satin\X\E9',0.796078431372549,0.796078431372549,
0.796078431372549);
ENDSEC;
END-ISO-10303-21;
