ISO-10303-21;
HEADER;
/* Generated by software containing ST-Developer
 * from STEP Tools, Inc. (www.steptools.com) 
 */
/* OPTION: using custom renumber hook */

FILE_DESCRIPTION(
/* description */ ('STEP AP214'),
/* implementation_level */ '2;1');

FILE_NAME(
/* name */ '60a3ff6c440338109fdb26fa',
/* time_stamp */ '2021-05-18T17:54:53+00:00',
/* author */ (''),
/* organization */ (''),
/* preprocessor_version */ 'ST-DEVELOPER v18.1',
/* originating_system */ '  ',
/* authorisation */ '  ');

FILE_SCHEMA (('AUTOMOTIVE_DESIGN {1 0 10303 214 3 1 1}'));
ENDSEC;

DATA;
#10=PROPERTY_DEFINITION_REPRESENTATION(#14,#12);
#11=PROPERTY_DEFINITION_REPRESENTATION(#15,#13);
#12=REPRESENTATION('',(#16),#707);
#13=REPRESENTATION('',(#17),#707);
#14=PROPERTY_DEFINITION('pmi validation property','',#712);
#15=PROPERTY_DEFINITION('pmi validation property','',#712);
#16=VALUE_REPRESENTATION_ITEM('number of annotations',COUNT_MEASURE(0.));
#17=VALUE_REPRESENTATION_ITEM('number of views',COUNT_MEASURE(0.));
#18=SHAPE_REPRESENTATION_RELATIONSHIP('','',#444,#19);
#19=ADVANCED_BREP_SHAPE_REPRESENTATION('',(#442),#707);
#20=CYLINDRICAL_SURFACE('',#467,0.003);
#21=CIRCLE('',#460,0.003);
#22=CIRCLE('',#463,0.003);
#23=B_SPLINE_CURVE_WITH_KNOTS('',3,(#590,#591,#592,#593),.UNSPECIFIED.,
 .F.,.F.,(4,4),(0.,1.),.UNSPECIFIED.);
#24=B_SPLINE_CURVE_WITH_KNOTS('',3,(#601,#602,#603,#604),.UNSPECIFIED.,
 .F.,.F.,(4,4),(0.,1.),.UNSPECIFIED.);
#25=B_SPLINE_CURVE_WITH_KNOTS('',3,(#606,#607,#608,#609),.UNSPECIFIED.,
 .F.,.F.,(4,4),(0.,1.),.UNSPECIFIED.);
#26=B_SPLINE_CURVE_WITH_KNOTS('',3,(#675,#676,#677,#678),.UNSPECIFIED.,
 .F.,.F.,(4,4),(0.,1.),.UNSPECIFIED.);
#27=ORIENTED_EDGE('',*,*,#143,.F.);
#28=ORIENTED_EDGE('',*,*,#144,.F.);
#29=ORIENTED_EDGE('',*,*,#145,.T.);
#30=ORIENTED_EDGE('',*,*,#146,.F.);
#31=ORIENTED_EDGE('',*,*,#147,.F.);
#32=ORIENTED_EDGE('',*,*,#148,.F.);
#33=ORIENTED_EDGE('',*,*,#149,.F.);
#34=ORIENTED_EDGE('',*,*,#150,.T.);
#35=ORIENTED_EDGE('',*,*,#151,.T.);
#36=ORIENTED_EDGE('',*,*,#145,.F.);
#37=ORIENTED_EDGE('',*,*,#152,.F.);
#38=ORIENTED_EDGE('',*,*,#153,.F.);
#39=ORIENTED_EDGE('',*,*,#144,.T.);
#40=ORIENTED_EDGE('',*,*,#154,.T.);
#41=ORIENTED_EDGE('',*,*,#152,.T.);
#42=ORIENTED_EDGE('',*,*,#155,.T.);
#43=ORIENTED_EDGE('',*,*,#151,.F.);
#44=ORIENTED_EDGE('',*,*,#156,.F.);
#45=ORIENTED_EDGE('',*,*,#157,.T.);
#46=ORIENTED_EDGE('',*,*,#158,.T.);
#47=ORIENTED_EDGE('',*,*,#159,.F.);
#48=ORIENTED_EDGE('',*,*,#160,.F.);
#49=ORIENTED_EDGE('',*,*,#161,.F.);
#50=ORIENTED_EDGE('',*,*,#162,.F.);
#51=ORIENTED_EDGE('',*,*,#163,.T.);
#52=ORIENTED_EDGE('',*,*,#164,.T.);
#53=ORIENTED_EDGE('',*,*,#157,.F.);
#54=ORIENTED_EDGE('',*,*,#165,.F.);
#55=ORIENTED_EDGE('',*,*,#166,.F.);
#56=ORIENTED_EDGE('',*,*,#167,.T.);
#57=ORIENTED_EDGE('',*,*,#168,.T.);
#58=ORIENTED_EDGE('',*,*,#169,.F.);
#59=ORIENTED_EDGE('',*,*,#170,.T.);
#60=ORIENTED_EDGE('',*,*,#171,.T.);
#61=ORIENTED_EDGE('',*,*,#167,.F.);
#62=ORIENTED_EDGE('',*,*,#172,.T.);
#63=ORIENTED_EDGE('',*,*,#147,.T.);
#64=ORIENTED_EDGE('',*,*,#173,.F.);
#65=ORIENTED_EDGE('',*,*,#174,.T.);
#66=ORIENTED_EDGE('',*,*,#175,.T.);
#67=ORIENTED_EDGE('',*,*,#176,.T.);
#68=ORIENTED_EDGE('',*,*,#177,.F.);
#69=ORIENTED_EDGE('',*,*,#170,.F.);
#70=ORIENTED_EDGE('',*,*,#173,.T.);
#71=ORIENTED_EDGE('',*,*,#146,.T.);
#72=ORIENTED_EDGE('',*,*,#155,.F.);
#73=ORIENTED_EDGE('',*,*,#178,.T.);
#74=ORIENTED_EDGE('',*,*,#160,.T.);
#75=ORIENTED_EDGE('',*,*,#179,.T.);
#76=ORIENTED_EDGE('',*,*,#175,.F.);
#77=ORIENTED_EDGE('',*,*,#180,.F.);
#78=ORIENTED_EDGE('',*,*,#174,.F.);
#79=ORIENTED_EDGE('',*,*,#178,.F.);
#80=ORIENTED_EDGE('',*,*,#161,.T.);
#81=ORIENTED_EDGE('',*,*,#180,.T.);
#82=ORIENTED_EDGE('',*,*,#177,.T.);
#83=ORIENTED_EDGE('',*,*,#181,.T.);
#84=ORIENTED_EDGE('',*,*,#168,.F.);
#85=ORIENTED_EDGE('',*,*,#171,.F.);
#86=ORIENTED_EDGE('',*,*,#166,.T.);
#87=ORIENTED_EDGE('',*,*,#148,.T.);
#88=ORIENTED_EDGE('',*,*,#172,.F.);
#89=ORIENTED_EDGE('',*,*,#169,.T.);
#90=ORIENTED_EDGE('',*,*,#156,.T.);
#91=ORIENTED_EDGE('',*,*,#150,.F.);
#92=ORIENTED_EDGE('',*,*,#182,.F.);
#93=ORIENTED_EDGE('',*,*,#183,.F.);
#94=ORIENTED_EDGE('',*,*,#184,.F.);
#95=ORIENTED_EDGE('',*,*,#185,.F.);
#96=ORIENTED_EDGE('',*,*,#186,.T.);
#97=ORIENTED_EDGE('',*,*,#162,.T.);
#98=ORIENTED_EDGE('',*,*,#187,.F.);
#99=ORIENTED_EDGE('',*,*,#188,.F.);
#100=ORIENTED_EDGE('',*,*,#189,.T.);
#101=ORIENTED_EDGE('',*,*,#182,.T.);
#102=ORIENTED_EDGE('',*,*,#158,.F.);
#103=ORIENTED_EDGE('',*,*,#164,.F.);
#104=ORIENTED_EDGE('',*,*,#190,.T.);
#105=ORIENTED_EDGE('',*,*,#191,.T.);
#106=ORIENTED_EDGE('',*,*,#192,.T.);
#107=ORIENTED_EDGE('',*,*,#193,.T.);
#108=ORIENTED_EDGE('',*,*,#188,.T.);
#109=ORIENTED_EDGE('',*,*,#194,.T.);
#110=ORIENTED_EDGE('',*,*,#193,.F.);
#111=ORIENTED_EDGE('',*,*,#195,.F.);
#112=ORIENTED_EDGE('',*,*,#183,.T.);
#113=ORIENTED_EDGE('',*,*,#189,.F.);
#114=ORIENTED_EDGE('',*,*,#195,.T.);
#115=ORIENTED_EDGE('',*,*,#192,.F.);
#116=ORIENTED_EDGE('',*,*,#196,.F.);
#117=ORIENTED_EDGE('',*,*,#184,.T.);
#118=ORIENTED_EDGE('',*,*,#191,.F.);
#119=ORIENTED_EDGE('',*,*,#197,.T.);
#120=ORIENTED_EDGE('',*,*,#185,.T.);
#121=ORIENTED_EDGE('',*,*,#196,.T.);
#122=ORIENTED_EDGE('',*,*,#186,.F.);
#123=ORIENTED_EDGE('',*,*,#197,.F.);
#124=ORIENTED_EDGE('',*,*,#190,.F.);
#125=ORIENTED_EDGE('',*,*,#163,.F.);
#126=ORIENTED_EDGE('',*,*,#198,.F.);
#127=ORIENTED_EDGE('',*,*,#199,.T.);
#128=ORIENTED_EDGE('',*,*,#181,.F.);
#129=ORIENTED_EDGE('',*,*,#176,.F.);
#130=ORIENTED_EDGE('',*,*,#179,.F.);
#131=ORIENTED_EDGE('',*,*,#194,.F.);
#132=ORIENTED_EDGE('',*,*,#200,.T.);
#133=ORIENTED_EDGE('',*,*,#198,.T.);
#134=ORIENTED_EDGE('',*,*,#159,.T.);
#135=ORIENTED_EDGE('',*,*,#200,.F.);
#136=ORIENTED_EDGE('',*,*,#187,.T.);
#137=ORIENTED_EDGE('',*,*,#149,.T.);
#138=ORIENTED_EDGE('',*,*,#153,.T.);
#139=ORIENTED_EDGE('',*,*,#154,.F.);
#140=ORIENTED_EDGE('',*,*,#143,.T.);
#141=ORIENTED_EDGE('',*,*,#165,.T.);
#142=ORIENTED_EDGE('',*,*,#199,.F.);
#143=EDGE_CURVE('',#201,#202,#238,.T.);
#144=EDGE_CURVE('',#203,#201,#239,.T.);
#145=EDGE_CURVE('',#203,#204,#240,.T.);
#146=EDGE_CURVE('',#205,#204,#241,.T.);
#147=EDGE_CURVE('',#206,#205,#242,.T.);
#148=EDGE_CURVE('',#202,#206,#243,.T.);
#149=EDGE_CURVE('',#207,#208,#23,.T.);
#150=EDGE_CURVE('',#207,#209,#244,.T.);
#151=EDGE_CURVE('',#209,#204,#245,.T.);
#152=EDGE_CURVE('',#210,#203,#246,.T.);
#153=EDGE_CURVE('',#208,#210,#24,.F.);
#154=EDGE_CURVE('',#201,#210,#25,.T.);
#155=EDGE_CURVE('',#211,#204,#247,.T.);
#156=EDGE_CURVE('',#212,#209,#248,.T.);
#157=EDGE_CURVE('',#212,#213,#249,.T.);
#158=EDGE_CURVE('',#213,#214,#250,.T.);
#159=EDGE_CURVE('',#215,#214,#251,.T.);
#160=EDGE_CURVE('',#216,#215,#252,.T.);
#161=EDGE_CURVE('',#211,#216,#253,.T.);
#162=EDGE_CURVE('',#217,#212,#254,.T.);
#163=EDGE_CURVE('',#217,#218,#255,.T.);
#164=EDGE_CURVE('',#218,#213,#256,.T.);
#165=EDGE_CURVE('',#202,#219,#257,.T.);
#166=EDGE_CURVE('',#220,#202,#258,.T.);
#167=EDGE_CURVE('',#220,#221,#259,.T.);
#168=EDGE_CURVE('',#221,#219,#260,.T.);
#169=EDGE_CURVE('',#222,#220,#261,.T.);
#170=EDGE_CURVE('',#222,#223,#262,.T.);
#171=EDGE_CURVE('',#223,#221,#263,.T.);
#172=EDGE_CURVE('',#222,#206,#264,.T.);
#173=EDGE_CURVE('',#224,#205,#265,.T.);
#174=EDGE_CURVE('',#224,#225,#266,.T.);
#175=EDGE_CURVE('',#225,#226,#267,.T.);
#176=EDGE_CURVE('',#226,#227,#268,.F.);
#177=EDGE_CURVE('',#223,#227,#269,.T.);
#178=EDGE_CURVE('',#211,#224,#270,.T.);
#179=EDGE_CURVE('',#215,#226,#271,.F.);
#180=EDGE_CURVE('',#216,#225,#272,.T.);
#181=EDGE_CURVE('',#227,#219,#273,.T.);
#182=EDGE_CURVE('',#228,#207,#274,.T.);
#183=EDGE_CURVE('',#229,#228,#275,.T.);
#184=EDGE_CURVE('',#230,#229,#276,.T.);
#185=EDGE_CURVE('',#231,#230,#277,.T.);
#186=EDGE_CURVE('',#231,#217,#21,.T.);
#187=EDGE_CURVE('',#232,#207,#26,.F.);
#188=EDGE_CURVE('',#233,#232,#278,.T.);
#189=EDGE_CURVE('',#233,#228,#279,.T.);
#190=EDGE_CURVE('',#218,#234,#22,.F.);
#191=EDGE_CURVE('',#234,#235,#280,.T.);
#192=EDGE_CURVE('',#235,#236,#281,.T.);
#193=EDGE_CURVE('',#236,#233,#282,.T.);
#194=EDGE_CURVE('',#232,#214,#283,.T.);
#195=EDGE_CURVE('',#229,#236,#284,.T.);
#196=EDGE_CURVE('',#230,#235,#285,.T.);
#197=EDGE_CURVE('',#234,#231,#286,.F.);
#198=EDGE_CURVE('',#237,#215,#287,.T.);
#199=EDGE_CURVE('',#237,#219,#288,.F.);
#200=EDGE_CURVE('',#232,#237,#289,.T.);
#201=VERTEX_POINT('',#578);
#202=VERTEX_POINT('',#579);
#203=VERTEX_POINT('',#581);
#204=VERTEX_POINT('',#583);
#205=VERTEX_POINT('',#585);
#206=VERTEX_POINT('',#587);
#207=VERTEX_POINT('',#594);
#208=VERTEX_POINT('',#595);
#209=VERTEX_POINT('',#597);
#210=VERTEX_POINT('',#600);
#211=VERTEX_POINT('',#612);
#212=VERTEX_POINT('',#614);
#213=VERTEX_POINT('',#616);
#214=VERTEX_POINT('',#618);
#215=VERTEX_POINT('',#620);
#216=VERTEX_POINT('',#622);
#217=VERTEX_POINT('',#626);
#218=VERTEX_POINT('',#628);
#219=VERTEX_POINT('',#632);
#220=VERTEX_POINT('',#634);
#221=VERTEX_POINT('',#636);
#222=VERTEX_POINT('',#640);
#223=VERTEX_POINT('',#642);
#224=VERTEX_POINT('',#647);
#225=VERTEX_POINT('',#649);
#226=VERTEX_POINT('',#651);
#227=VERTEX_POINT('',#653);
#228=VERTEX_POINT('',#666);
#229=VERTEX_POINT('',#668);
#230=VERTEX_POINT('',#670);
#231=VERTEX_POINT('',#672);
#232=VERTEX_POINT('',#679);
#233=VERTEX_POINT('',#681);
#234=VERTEX_POINT('',#685);
#235=VERTEX_POINT('',#687);
#236=VERTEX_POINT('',#689);
#237=VERTEX_POINT('',#701);
#238=LINE('',#577,#290);
#239=LINE('',#580,#291);
#240=LINE('',#582,#292);
#241=LINE('',#584,#293);
#242=LINE('',#586,#294);
#243=LINE('',#588,#295);
#244=LINE('',#596,#296);
#245=LINE('',#598,#297);
#246=LINE('',#599,#298);
#247=LINE('',#611,#299);
#248=LINE('',#613,#300);
#249=LINE('',#615,#301);
#250=LINE('',#617,#302);
#251=LINE('',#619,#303);
#252=LINE('',#621,#304);
#253=LINE('',#623,#305);
#254=LINE('',#625,#306);
#255=LINE('',#627,#307);
#256=LINE('',#629,#308);
#257=LINE('',#631,#309);
#258=LINE('',#633,#310);
#259=LINE('',#635,#311);
#260=LINE('',#637,#312);
#261=LINE('',#639,#313);
#262=LINE('',#641,#314);
#263=LINE('',#643,#315);
#264=LINE('',#645,#316);
#265=LINE('',#646,#317);
#266=LINE('',#648,#318);
#267=LINE('',#650,#319);
#268=LINE('',#652,#320);
#269=LINE('',#654,#321);
#270=LINE('',#656,#322);
#271=LINE('',#658,#323);
#272=LINE('',#659,#324);
#273=LINE('',#662,#325);
#274=LINE('',#665,#326);
#275=LINE('',#667,#327);
#276=LINE('',#669,#328);
#277=LINE('',#671,#329);
#278=LINE('',#680,#330);
#279=LINE('',#682,#331);
#280=LINE('',#686,#332);
#281=LINE('',#688,#333);
#282=LINE('',#690,#334);
#283=LINE('',#691,#335);
#284=LINE('',#693,#336);
#285=LINE('',#695,#337);
#286=LINE('',#697,#338);
#287=LINE('',#700,#339);
#288=LINE('',#702,#340);
#289=LINE('',#704,#341);
#290=VECTOR('',#475,1.);
#291=VECTOR('',#476,1.);
#292=VECTOR('',#477,1.);
#293=VECTOR('',#478,1.);
#294=VECTOR('',#479,1.);
#295=VECTOR('',#480,1.);
#296=VECTOR('',#483,1.);
#297=VECTOR('',#484,1.);
#298=VECTOR('',#485,1.);
#299=VECTOR('',#490,1.);
#300=VECTOR('',#491,1.);
#301=VECTOR('',#492,1.);
#302=VECTOR('',#493,1.);
#303=VECTOR('',#494,1.);
#304=VECTOR('',#495,1.);
#305=VECTOR('',#496,1.);
#306=VECTOR('',#499,1.);
#307=VECTOR('',#500,1.);
#308=VECTOR('',#501,1.);
#309=VECTOR('',#504,1.);
#310=VECTOR('',#505,1.);
#311=VECTOR('',#506,1.);
#312=VECTOR('',#507,1.);
#313=VECTOR('',#510,1.);
#314=VECTOR('',#511,1.);
#315=VECTOR('',#512,1.);
#316=VECTOR('',#515,1.);
#317=VECTOR('',#516,1.);
#318=VECTOR('',#517,1.);
#319=VECTOR('',#518,1.);
#320=VECTOR('',#519,1.);
#321=VECTOR('',#520,1.);
#322=VECTOR('',#523,1.);
#323=VECTOR('',#526,1.);
#324=VECTOR('',#527,1.);
#325=VECTOR('',#532,1.);
#326=VECTOR('',#537,1.);
#327=VECTOR('',#538,1.);
#328=VECTOR('',#539,1.);
#329=VECTOR('',#540,1.);
#330=VECTOR('',#545,1.);
#331=VECTOR('',#546,1.);
#332=VECTOR('',#551,1.);
#333=VECTOR('',#552,1.);
#334=VECTOR('',#553,1.);
#335=VECTOR('',#554,1.);
#336=VECTOR('',#557,1.);
#337=VECTOR('',#560,1.);
#338=VECTOR('',#563,1.);
#339=VECTOR('',#568,1.);
#340=VECTOR('',#569,1.);
#341=VECTOR('',#572,1.);
#342=EDGE_LOOP('',(#27,#28,#29,#30,#31,#32));
#343=EDGE_LOOP('',(#33,#34,#35,#36,#37,#38));
#344=EDGE_LOOP('',(#39,#40,#41));
#345=EDGE_LOOP('',(#42,#43,#44,#45,#46,#47,#48,#49));
#346=EDGE_LOOP('',(#50,#51,#52,#53));
#347=EDGE_LOOP('',(#54,#55,#56,#57));
#348=EDGE_LOOP('',(#58,#59,#60,#61));
#349=EDGE_LOOP('',(#62,#63,#64,#65,#66,#67,#68,#69));
#350=EDGE_LOOP('',(#70,#71,#72,#73));
#351=EDGE_LOOP('',(#74,#75,#76,#77));
#352=EDGE_LOOP('',(#78,#79,#80,#81));
#353=EDGE_LOOP('',(#82,#83,#84,#85));
#354=EDGE_LOOP('',(#86,#87,#88,#89));
#355=EDGE_LOOP('',(#90,#91,#92,#93,#94,#95,#96,#97));
#356=EDGE_LOOP('',(#98,#99,#100,#101));
#357=EDGE_LOOP('',(#102,#103,#104,#105,#106,#107,#108,#109));
#358=EDGE_LOOP('',(#110,#111,#112,#113));
#359=EDGE_LOOP('',(#114,#115,#116,#117));
#360=EDGE_LOOP('',(#118,#119,#120,#121));
#361=EDGE_LOOP('',(#122,#123,#124,#125));
#362=EDGE_LOOP('',(#126,#127,#128,#129,#130));
#363=EDGE_LOOP('',(#131,#132,#133,#134));
#364=EDGE_LOOP('',(#135,#136,#137,#138,#139,#140,#141,#142));
#365=FACE_BOUND('',#342,.T.);
#366=FACE_BOUND('',#343,.T.);
#367=FACE_BOUND('',#344,.T.);
#368=FACE_BOUND('',#345,.T.);
#369=FACE_BOUND('',#346,.T.);
#370=FACE_BOUND('',#347,.T.);
#371=FACE_BOUND('',#348,.T.);
#372=FACE_BOUND('',#349,.T.);
#373=FACE_BOUND('',#350,.T.);
#374=FACE_BOUND('',#351,.T.);
#375=FACE_BOUND('',#352,.T.);
#376=FACE_BOUND('',#353,.T.);
#377=FACE_BOUND('',#354,.T.);
#378=FACE_BOUND('',#355,.T.);
#379=FACE_BOUND('',#356,.T.);
#380=FACE_BOUND('',#357,.T.);
#381=FACE_BOUND('',#358,.T.);
#382=FACE_BOUND('',#359,.T.);
#383=FACE_BOUND('',#360,.T.);
#384=FACE_BOUND('',#361,.T.);
#385=FACE_BOUND('',#362,.T.);
#386=FACE_BOUND('',#363,.T.);
#387=FACE_BOUND('',#364,.T.);
#388=PLANE('',#446);
#389=PLANE('',#447);
#390=PLANE('',#448);
#391=PLANE('',#449);
#392=PLANE('',#450);
#393=PLANE('',#451);
#394=PLANE('',#452);
#395=PLANE('',#453);
#396=PLANE('',#454);
#397=PLANE('',#455);
#398=PLANE('',#456);
#399=PLANE('',#457);
#400=PLANE('',#458);
#401=PLANE('',#459);
#402=PLANE('',#461);
#403=PLANE('',#462);
#404=PLANE('',#464);
#405=PLANE('',#465);
#406=PLANE('',#466);
#407=PLANE('',#468);
#408=PLANE('',#469);
#409=PLANE('',#470);
#410=ADVANCED_FACE('',(#365),#388,.F.);
#411=ADVANCED_FACE('',(#366),#389,.F.);
#412=ADVANCED_FACE('',(#367),#390,.T.);
#413=ADVANCED_FACE('',(#368),#391,.T.);
#414=ADVANCED_FACE('',(#369),#392,.T.);
#415=ADVANCED_FACE('',(#370),#393,.T.);
#416=ADVANCED_FACE('',(#371),#394,.F.);
#417=ADVANCED_FACE('',(#372),#395,.F.);
#418=ADVANCED_FACE('',(#373),#396,.F.);
#419=ADVANCED_FACE('',(#374),#397,.T.);
#420=ADVANCED_FACE('',(#375),#398,.T.);
#421=ADVANCED_FACE('',(#376),#399,.T.);
#422=ADVANCED_FACE('',(#377),#400,.F.);
#423=ADVANCED_FACE('',(#378),#401,.F.);
#424=ADVANCED_FACE('',(#379),#402,.T.);
#425=ADVANCED_FACE('',(#380),#403,.T.);
#426=ADVANCED_FACE('',(#381),#404,.T.);
#427=ADVANCED_FACE('',(#382),#405,.F.);
#428=ADVANCED_FACE('',(#383),#406,.F.);
#429=ADVANCED_FACE('',(#384),#20,.F.);
#430=ADVANCED_FACE('',(#385),#407,.T.);
#431=ADVANCED_FACE('',(#386),#408,.F.);
#432=ADVANCED_FACE('',(#387),#409,.F.);
#433=CLOSED_SHELL('',(#410,#411,#412,#413,#414,#415,#416,#417,#418,#419,
#420,#421,#422,#423,#424,#425,#426,#427,#428,#429,#430,#431,#432));
#434=STYLED_ITEM('',(#435),#442);
#435=PRESENTATION_STYLE_ASSIGNMENT((#436));
#436=SURFACE_STYLE_USAGE(.BOTH.,#437);
#437=SURFACE_SIDE_STYLE('',(#438));
#438=SURFACE_STYLE_FILL_AREA(#439);
#439=FILL_AREA_STYLE('',(#440));
#440=FILL_AREA_STYLE_COLOUR('',#441);
#441=COLOUR_RGB('',0.615686274509804,0.811764705882353,0.929411764705882);
#442=MANIFOLD_SOLID_BREP('Part 1',#433);
#443=SHAPE_DEFINITION_REPRESENTATION(#712,#444);
#444=SHAPE_REPRESENTATION('Part 1',(#445),#707);
#445=AXIS2_PLACEMENT_3D('',#575,#471,#472);
#446=AXIS2_PLACEMENT_3D('',#576,#473,#474);
#447=AXIS2_PLACEMENT_3D('',#589,#481,#482);
#448=AXIS2_PLACEMENT_3D('',#605,#486,#487);
#449=AXIS2_PLACEMENT_3D('',#610,#488,#489);
#450=AXIS2_PLACEMENT_3D('',#624,#497,#498);
#451=AXIS2_PLACEMENT_3D('',#630,#502,#503);
#452=AXIS2_PLACEMENT_3D('',#638,#508,#509);
#453=AXIS2_PLACEMENT_3D('',#644,#513,#514);
#454=AXIS2_PLACEMENT_3D('',#655,#521,#522);
#455=AXIS2_PLACEMENT_3D('',#657,#524,#525);
#456=AXIS2_PLACEMENT_3D('',#660,#528,#529);
#457=AXIS2_PLACEMENT_3D('',#661,#530,#531);
#458=AXIS2_PLACEMENT_3D('',#663,#533,#534);
#459=AXIS2_PLACEMENT_3D('',#664,#535,#536);
#460=AXIS2_PLACEMENT_3D('',#673,#541,#542);
#461=AXIS2_PLACEMENT_3D('',#674,#543,#544);
#462=AXIS2_PLACEMENT_3D('',#683,#547,#548);
#463=AXIS2_PLACEMENT_3D('',#684,#549,#550);
#464=AXIS2_PLACEMENT_3D('',#692,#555,#556);
#465=AXIS2_PLACEMENT_3D('',#694,#558,#559);
#466=AXIS2_PLACEMENT_3D('',#696,#561,#562);
#467=AXIS2_PLACEMENT_3D('',#698,#564,#565);
#468=AXIS2_PLACEMENT_3D('',#699,#566,#567);
#469=AXIS2_PLACEMENT_3D('',#703,#570,#571);
#470=AXIS2_PLACEMENT_3D('',#705,#573,#574);
#471=DIRECTION('',(0.,0.,1.));
#472=DIRECTION('',(1.,0.,0.));
#473=DIRECTION('',(0.342020143325669,0.,0.939692620785908));
#474=DIRECTION('',(0.,-1.,0.));
#475=DIRECTION('',(0.896675303938621,0.299099503386986,-0.326363120435258));
#476=DIRECTION('',(0.939692620785908,0.,-0.342020143325669));
#477=DIRECTION('',(0.,1.,0.));
#478=DIRECTION('',(0.,-1.,0.));
#479=DIRECTION('',(-0.939692620785908,0.,0.342020143325669));
#480=DIRECTION('',(0.,1.,0.));
#481=DIRECTION('',(-0.000505581010470725,0.,-0.999999872193913));
#482=DIRECTION('',(-0.999999872193913,0.,0.000505581010470725));
#483=DIRECTION('',(0.,1.,0.));
#484=DIRECTION('',(-0.999999872193913,0.,0.000505581010470725));
#485=DIRECTION('',(-0.999999872193913,0.,0.000505581010470725));
#486=DIRECTION('',(0.,-1.,0.));
#487=DIRECTION('',(1.,0.,0.));
#488=DIRECTION('',(0.,-1.,0.));
#489=DIRECTION('',(1.,0.,0.));
#490=DIRECTION('',(0.,0.,-1.));
#491=DIRECTION('',(0.,0.,-1.));
#492=DIRECTION('',(1.,0.,1.7347234759768E-16));
#493=DIRECTION('',(0.,0.,-1.));
#494=DIRECTION('',(-0.999999872193913,0.,0.000505581010470725));
#495=DIRECTION('',(0.,0.,-1.));
#496=DIRECTION('',(1.,0.,0.));
#497=DIRECTION('',(-1.7347234759768E-16,0.,1.));
#498=DIRECTION('',(1.,0.,1.7347234759768E-16));
#499=DIRECTION('',(0.,1.,0.));
#500=DIRECTION('',(1.,0.,1.7347234759768E-16));
#501=DIRECTION('',(0.,1.,0.));
#502=DIRECTION('',(0.,-1.,0.));
#503=DIRECTION('',(1.,0.,0.));
#504=DIRECTION('',(1.,0.,0.));
#505=DIRECTION('',(0.,0.,1.));
#506=DIRECTION('',(1.,0.,0.));
#507=DIRECTION('',(0.,0.,1.));
#508=DIRECTION('',(0.,0.,1.));
#509=DIRECTION('',(1.,0.,0.));
#510=DIRECTION('',(0.,-1.,0.));
#511=DIRECTION('',(1.,0.,0.));
#512=DIRECTION('',(0.,-1.,0.));
#513=DIRECTION('',(0.,-1.,0.));
#514=DIRECTION('',(1.,0.,0.));
#515=DIRECTION('',(0.,0.,1.));
#516=DIRECTION('',(0.,0.,-1.));
#517=DIRECTION('',(1.,0.,0.));
#518=DIRECTION('',(0.,0.,-1.));
#519=DIRECTION('',(0.939692620785909,0.,0.342020143325669));
#520=DIRECTION('',(0.,0.,1.));
#521=DIRECTION('',(1.,0.,0.));
#522=DIRECTION('',(0.,0.,-1.));
#523=DIRECTION('',(0.,1.,0.));
#524=DIRECTION('',(1.,0.,0.));
#525=DIRECTION('',(0.,0.,-1.));
#526=DIRECTION('',(0.,-1.,0.));
#527=DIRECTION('',(0.,1.,0.));
#528=DIRECTION('',(0.,0.,1.));
#529=DIRECTION('',(1.,0.,0.));
#530=DIRECTION('',(1.,0.,0.));
#531=DIRECTION('',(0.,0.,-1.));
#532=DIRECTION('',(0.,-1.,0.));
#533=DIRECTION('',(1.,0.,0.));
#534=DIRECTION('',(0.,0.,-1.));
#535=DIRECTION('',(1.,0.,0.));
#536=DIRECTION('',(0.,0.,-1.));
#537=DIRECTION('',(0.,1.,0.));
#538=DIRECTION('',(0.,0.,-1.));
#539=DIRECTION('',(0.,-1.,0.));
#540=DIRECTION('',(0.,0.,1.));
#541=DIRECTION('',(1.,0.,0.));
#542=DIRECTION('',(0.,0.,-1.));
#543=DIRECTION('',(-1.12757025938492E-15,0.,-1.));
#544=DIRECTION('',(-1.,0.,1.12757025938492E-15));
#545=DIRECTION('',(0.,1.,0.));
#546=DIRECTION('',(-1.,0.,1.12757025938492E-15));
#547=DIRECTION('',(1.,0.,0.));
#548=DIRECTION('',(0.,0.,-1.));
#549=DIRECTION('',(1.,0.,0.));
#550=DIRECTION('',(0.,0.,-1.));
#551=DIRECTION('',(0.,0.,1.));
#552=DIRECTION('',(0.,-1.,0.));
#553=DIRECTION('',(0.,0.,-1.));
#554=DIRECTION('',(0.,1.,0.));
#555=DIRECTION('',(0.,-1.,0.));
#556=DIRECTION('',(1.,0.,0.));
#557=DIRECTION('',(1.,0.,0.));
#558=DIRECTION('',(0.,0.,-1.));
#559=DIRECTION('',(-1.,0.,0.));
#560=DIRECTION('',(1.,0.,0.));
#561=DIRECTION('',(0.,-1.,0.));
#562=DIRECTION('',(1.,0.,0.));
#563=DIRECTION('',(1.,0.,1.7347234759768E-16));
#564=DIRECTION('',(1.,0.,1.7347234759768E-16));
#565=DIRECTION('',(1.7347234759768E-16,0.,-1.));
#566=DIRECTION('',(0.342020143325669,0.,-0.939692620785908));
#567=DIRECTION('',(0.,1.,0.));
#568=DIRECTION('',(0.,1.,0.));
#569=DIRECTION('',(0.896675303938622,-0.299099503386986,0.326363120435259));
#570=DIRECTION('',(-0.000505581010470725,0.,-0.999999872193913));
#571=DIRECTION('',(-0.999999872193913,0.,0.000505581010470725));
#572=DIRECTION('',(0.99999976484921,0.000463345897414652,-0.000505580956199275));
#573=DIRECTION('',(0.,0.7372291755923,0.675642762601286));
#574=DIRECTION('',(0.,-0.675642762601286,0.7372291755923));
#575=CARTESIAN_POINT('',(0.,0.,0.));
#576=CARTESIAN_POINT('',(0.,0.022,-0.007));
#577=CARTESIAN_POINT('',(0.00697325999146445,-0.00167465950600581,-0.00953805907269245));
#578=CARTESIAN_POINT('',(2.47227449237906E-6,-0.004,-0.00700089983432616));
#579=CARTESIAN_POINT('',(0.003,-0.003,-0.00809191070279861));
#580=CARTESIAN_POINT('',(0.,-0.004,-0.007));
#581=CARTESIAN_POINT('',(0.,-0.004,-0.007));
#582=CARTESIAN_POINT('',(0.,-0.004,-0.007));
#583=CARTESIAN_POINT('',(0.,-0.003,-0.007));
#584=CARTESIAN_POINT('',(0.,0.022,-0.007));
#585=CARTESIAN_POINT('',(0.,0.,-0.007));
#586=CARTESIAN_POINT('',(0.0104388127233302,0.,-0.0107994171123715));
#587=CARTESIAN_POINT('',(0.003,0.,-0.00809191070279861));
#588=CARTESIAN_POINT('',(0.003,0.022,-0.00809191070279861));
#589=CARTESIAN_POINT('',(0.008,-0.004,-0.0070040446486007));
#590=CARTESIAN_POINT('',(0.00300000000000001,-0.00399930498081279,-0.00700151674322526));
#591=CARTESIAN_POINT('',(0.00260737599501235,-0.00399948690157751,-0.00700131823995872));
#592=CARTESIAN_POINT('',(0.0022147519900247,-0.00399966882234222,-0.00700111973669217));
#593=CARTESIAN_POINT('',(0.00182212798503705,-0.00399985074310694,-0.00700092123342562));
#594=CARTESIAN_POINT('',(0.00299999981784349,-0.00399963971720778,-0.00700123382488979));
#595=CARTESIAN_POINT('',(0.00182212798503704,-0.00399997249151894,-0.00700091053387589));
#596=CARTESIAN_POINT('',(0.00299999923316353,-0.004,-0.00700151674283756));
#597=CARTESIAN_POINT('',(0.00299999961658176,-0.003,-0.00700151674303141));
#598=CARTESIAN_POINT('',(0.008,-0.003,-0.0070040446486007));
#599=CARTESIAN_POINT('',(0.008,-0.004,-0.0070040446486007));
#600=CARTESIAN_POINT('',(0.00173747641085545,-0.00399994498303788,-0.00700089983432616));
#601=CARTESIAN_POINT('',(0.00173747641085545,-0.004,-0.00700087843519174));
#602=CARTESIAN_POINT('',(0.00176569360224931,-0.004,-0.0070008927012697));
#603=CARTESIAN_POINT('',(0.00179391079364317,-0.004,-0.00700090696734766));
#604=CARTESIAN_POINT('',(0.00182212798503704,-0.004,-0.00700092123342562));
#605=CARTESIAN_POINT('',(0.008,-0.004,-0.0175));
#606=CARTESIAN_POINT('',(2.47227449238011E-6,-0.004,-0.00700087843519174));
#607=CARTESIAN_POINT('',(0.000580806986613404,-0.004,-0.00700087843519174));
#608=CARTESIAN_POINT('',(0.00115914169873443,-0.004,-0.00700087843519174));
#609=CARTESIAN_POINT('',(0.00173747641085545,-0.004,-0.00700087843519174));
#610=CARTESIAN_POINT('',(0.008,-0.003,-0.0175));
#611=CARTESIAN_POINT('',(0.,-0.003,-0.0035));
#612=CARTESIAN_POINT('',(0.,-0.003,0.));
#613=CARTESIAN_POINT('',(0.003,-0.003,-0.0055));
#614=CARTESIAN_POINT('',(0.003,-0.003,-0.004));
#615=CARTESIAN_POINT('',(0.008,-0.003,-0.004));
#616=CARTESIAN_POINT('',(0.013,-0.003,-0.004));
#617=CARTESIAN_POINT('',(0.013,-0.003,-0.0055));
#618=CARTESIAN_POINT('',(0.013,-0.003,-0.00700657255397613));
#619=CARTESIAN_POINT('',(0.008,-0.003,-0.0070040446486007));
#620=CARTESIAN_POINT('',(0.016,-0.003,-0.00700808929720139));
#621=CARTESIAN_POINT('',(0.016,-0.003,-0.0175));
#622=CARTESIAN_POINT('',(0.016,-0.003,0.));
#623=CARTESIAN_POINT('',(0.008,-0.003,0.));
#624=CARTESIAN_POINT('',(0.008,-0.012,-0.004));
#625=CARTESIAN_POINT('',(0.003,-0.012,-0.004));
#626=CARTESIAN_POINT('',(0.003,-0.006,-0.004));
#627=CARTESIAN_POINT('',(0.008,-0.006,-0.004));
#628=CARTESIAN_POINT('',(0.013,-0.006,-0.004));
#629=CARTESIAN_POINT('',(0.013,-0.012,-0.004));
#630=CARTESIAN_POINT('',(0.008,-0.003,-0.0175));
#631=CARTESIAN_POINT('',(0.0450695078430921,-0.003,-0.00809191070279861));
#632=CARTESIAN_POINT('',(0.0130092497166282,-0.003,-0.00809441799508458));
#633=CARTESIAN_POINT('',(0.003,-0.003,-0.021));
#634=CARTESIAN_POINT('',(0.003,-0.003,-0.035));
#635=CARTESIAN_POINT('',(0.008,-0.003,-0.035));
#636=CARTESIAN_POINT('',(0.013,-0.003,-0.035));
#637=CARTESIAN_POINT('',(0.013,-0.003,-0.021));
#638=CARTESIAN_POINT('',(0.008,-0.003,-0.035));
#639=CARTESIAN_POINT('',(0.003,0.022,-0.035));
#640=CARTESIAN_POINT('',(0.003,0.,-0.035));
#641=CARTESIAN_POINT('',(0.008,0.,-0.035));
#642=CARTESIAN_POINT('',(0.013,0.,-0.035));
#643=CARTESIAN_POINT('',(0.013,0.022,-0.035));
#644=CARTESIAN_POINT('',(0.008,0.,-0.0175));
#645=CARTESIAN_POINT('',(0.003,0.,-0.0175));
#646=CARTESIAN_POINT('',(0.,0.,-0.0035));
#647=CARTESIAN_POINT('',(0.,0.,0.));
#648=CARTESIAN_POINT('',(0.008,0.,0.));
#649=CARTESIAN_POINT('',(0.016,0.,0.));
#650=CARTESIAN_POINT('',(0.016,0.,-0.0175));
#651=CARTESIAN_POINT('',(0.016,0.,-0.00700808929720139));
#652=CARTESIAN_POINT('',(0.00556378712667582,0.,-0.0108065601415571));
#653=CARTESIAN_POINT('',(0.013,0.,-0.0081));
#654=CARTESIAN_POINT('',(0.013,0.,-0.0175));
#655=CARTESIAN_POINT('',(0.,-0.003,-0.0035));
#656=CARTESIAN_POINT('',(0.,-0.003,0.));
#657=CARTESIAN_POINT('',(0.016,-0.003,-0.0175));
#658=CARTESIAN_POINT('',(0.016,0.022,-0.00700808929720139));
#659=CARTESIAN_POINT('',(0.016,-0.003,0.));
#660=CARTESIAN_POINT('',(0.008,-0.003,0.));
#661=CARTESIAN_POINT('',(0.013,0.022,-0.021));
#662=CARTESIAN_POINT('',(0.013,-0.003,-0.0081));
#663=CARTESIAN_POINT('',(0.003,0.022,-0.021));
#664=CARTESIAN_POINT('',(0.003,-0.012,-0.0055));
#665=CARTESIAN_POINT('',(0.003,-0.012,-0.007));
#666=CARTESIAN_POINT('',(0.003,-0.012,-0.007));
#667=CARTESIAN_POINT('',(0.003,-0.012,-0.0055));
#668=CARTESIAN_POINT('',(0.003,-0.012,0.002));
#669=CARTESIAN_POINT('',(0.003,-0.009,0.002));
#670=CARTESIAN_POINT('',(0.003,-0.009,0.002));
#671=CARTESIAN_POINT('',(0.003,-0.009,-0.0025));
#672=CARTESIAN_POINT('',(0.003,-0.009,-0.001));
#673=CARTESIAN_POINT('',(0.003,-0.006,-0.001));
#674=CARTESIAN_POINT('',(0.008,-0.012,-0.007));
#675=CARTESIAN_POINT('',(0.00299999961658176,-0.004,-0.00699999999999999));
#676=CARTESIAN_POINT('',(0.00633333252389483,-0.004,-0.007));
#677=CARTESIAN_POINT('',(0.0096666654312079,-0.004,-0.007));
#678=CARTESIAN_POINT('',(0.012999998338521,-0.004,-0.00700000000000001));
#679=CARTESIAN_POINT('',(0.0129999961929047,-0.00399995654155958,-0.00700208529733769));
#680=CARTESIAN_POINT('',(0.013,-0.012,-0.007));
#681=CARTESIAN_POINT('',(0.013,-0.012,-0.007));
#682=CARTESIAN_POINT('',(0.008,-0.012,-0.007));
#683=CARTESIAN_POINT('',(0.013,-0.012,-0.0055));
#684=CARTESIAN_POINT('',(0.013,-0.006,-0.001));
#685=CARTESIAN_POINT('',(0.013,-0.009,-0.001));
#686=CARTESIAN_POINT('',(0.013,-0.009,-0.0025));
#687=CARTESIAN_POINT('',(0.013,-0.009,0.002));
#688=CARTESIAN_POINT('',(0.013,-0.009,0.002));
#689=CARTESIAN_POINT('',(0.013,-0.012,0.002));
#690=CARTESIAN_POINT('',(0.013,-0.012,-0.0055));
#691=CARTESIAN_POINT('',(0.013,-0.012,-0.00700657255397613));
#692=CARTESIAN_POINT('',(0.008,-0.012,-0.0175));
#693=CARTESIAN_POINT('',(0.008,-0.012,0.002));
#694=CARTESIAN_POINT('',(0.008,-0.009,0.002));
#695=CARTESIAN_POINT('',(0.008,-0.009,0.002));
#696=CARTESIAN_POINT('',(0.008,-0.009,-0.0025));
#697=CARTESIAN_POINT('',(0.008,-0.009,-0.001));
#698=CARTESIAN_POINT('',(0.008,-0.006,-0.001));
#699=CARTESIAN_POINT('',(0.013,0.022,-0.0081));
#700=CARTESIAN_POINT('',(0.016,-0.004,-0.00700808929720139));
#701=CARTESIAN_POINT('',(0.016,-0.00399328148272997,-0.00700808929720139));
#702=CARTESIAN_POINT('',(0.0062971098216533,-0.000756736859481792,-0.0105396525084735));
#703=CARTESIAN_POINT('',(0.008,-0.004,-0.0070040446486007));
#704=CARTESIAN_POINT('',(0.00799999860451868,-0.00399698825142752,-0.00700404464789517));
#705=CARTESIAN_POINT('',(0.0450695078430921,-0.0035,-0.00754633453710869));
#706=MECHANICAL_DESIGN_GEOMETRIC_PRESENTATION_REPRESENTATION('',(#434),
#707);
#707=(
GEOMETRIC_REPRESENTATION_CONTEXT(3)
GLOBAL_UNCERTAINTY_ASSIGNED_CONTEXT((#708))
GLOBAL_UNIT_ASSIGNED_CONTEXT((#711,#710,#709))
REPRESENTATION_CONTEXT('Part 1','TOP_LEVEL_ASSEMBLY_PART')
);
#708=UNCERTAINTY_MEASURE_WITH_UNIT(LENGTH_MEASURE(5.E-6),#711,
'DISTANCE_ACCURACY_VALUE','Maximum Tolerance applied to model');
#709=(
NAMED_UNIT(*)
SI_UNIT($,.STERADIAN.)
SOLID_ANGLE_UNIT()
);
#710=(
NAMED_UNIT(*)
PLANE_ANGLE_UNIT()
SI_UNIT($,.RADIAN.)
);
#711=(
LENGTH_UNIT()
NAMED_UNIT(*)
SI_UNIT($,.METRE.)
);
#712=PRODUCT_DEFINITION_SHAPE('','',#713);
#713=PRODUCT_DEFINITION('','',#715,#714);
#714=PRODUCT_DEFINITION_CONTEXT('',#721,'design');
#715=PRODUCT_DEFINITION_FORMATION_WITH_SPECIFIED_SOURCE('','',#717,
 .NOT_KNOWN.);
#716=PRODUCT_RELATED_PRODUCT_CATEGORY('','',(#717));
#717=PRODUCT('Part 1','Part 1','Part 1',(#719));
#718=PRODUCT_CATEGORY('','');
#719=PRODUCT_CONTEXT('',#721,'mechanical');
#720=APPLICATION_PROTOCOL_DEFINITION('international standard',
'automotive_design',2010,#721);
#721=APPLICATION_CONTEXT(
'core data for automotive mechanical design processes');
ENDSEC;
END-ISO-10303-21;
