ISO-10303-21;
HEADER;
FILE_DESCRIPTION(('CATIA V5 STEP Exchange'),'2;1');

FILE_NAME('C:\\Users\\Eva\\Documents\\ISAT 2A\\S2\\Projet interdisciplinaire\\cao paul\\Fourchette pt2 modif 1.stp','2021-05-01T13:13:00+00:00',('none'),('none'),'CATIA Version 5 Release 19 GA (IN-10)','CATIA V5 STEP AP203','none');

FILE_SCHEMA(('CONFIG_CONTROL_DESIGN'));

ENDSEC;
/* file written by CATIA V5R19 */
DATA;
#5=PRODUCT('Fourchette pt2','','',(#2)) ;
#1=APPLICATION_CONTEXT('configuration controlled 3D design of mechanical parts and assemblies') ;
#14=PRODUCT_DEFINITION('',' ',#6,#3) ;
#16=SECURITY_CLASSIFICATION(' ',' ',#15) ;
#15=SECURITY_CLASSIFICATION_LEVEL('unclassified') ;
#47=CARTESIAN_POINT(' ',(0.,0.,0.)) ;
#52=CARTESIAN_POINT('Axis2P3D Location',(2.70090333611E-015,0.,9.)) ;
#57=CARTESIAN_POINT('Line Origine',(-1.04953596816E-023,0.5,1.7763568394E-014)) ;
#61=CARTESIAN_POINT('Vertex',(-1.04953596816E-023,0.,1.7763568394E-014)) ;
#63=CARTESIAN_POINT('Vertex',(-1.04953596816E-023,1.,1.7763568394E-014)) ;
#66=CARTESIAN_POINT('Line Origine',(1.35045166281E-015,0.,4.5)) ;
#70=CARTESIAN_POINT('Vertex',(2.70090333611E-015,0.,9.)) ;
#73=CARTESIAN_POINT('Line Origine',(2.70090333611E-015,0.5,9.)) ;
#77=CARTESIAN_POINT('Vertex',(2.70090333611E-015,1.,9.)) ;
#80=CARTESIAN_POINT('Line Origine',(1.35045166281E-015,1.,4.5)) ;
#92=CARTESIAN_POINT('Axis2P3D Location',(10.9999993782,0.,9.)) ;
#97=CARTESIAN_POINT('Line Origine',(5.49999968909,0.,9.)) ;
#101=CARTESIAN_POINT('Vertex',(10.9999993782,0.,9.)) ;
#104=CARTESIAN_POINT('Line Origine',(10.9999993782,0.5,9.)) ;
#108=CARTESIAN_POINT('Vertex',(10.9999993782,1.,9.)) ;
#111=CARTESIAN_POINT('Line Origine',(5.49999968909,1.,9.)) ;
#123=CARTESIAN_POINT('Axis2P3D Location',(11.,0.5,20.)) ;
#128=CARTESIAN_POINT('Axis2P3D Location',(11.,0.,20.)) ;
#132=CARTESIAN_POINT('Vertex',(11.,0.,31.)) ;
#135=CARTESIAN_POINT('Line Origine',(11.,0.5,31.)) ;
#139=CARTESIAN_POINT('Vertex',(11.,1.,31.)) ;
#142=CARTESIAN_POINT('Axis2P3D Location',(11.,1.,20.)) ;
#154=CARTESIAN_POINT('Axis2P3D Location',(7.02135018571E-007,0.,31.)) ;
#159=CARTESIAN_POINT('Line Origine',(5.50000035107,0.,31.)) ;
#163=CARTESIAN_POINT('Vertex',(7.02135018571E-007,0.,31.)) ;
#166=CARTESIAN_POINT('Line Origine',(7.02135018571E-007,0.5,31.)) ;
#170=CARTESIAN_POINT('Vertex',(7.02135018571E-007,1.,31.)) ;
#173=CARTESIAN_POINT('Line Origine',(5.50000035107,1.,31.)) ;
#185=CARTESIAN_POINT('Axis2P3D Location',(1.27660907213E-006,0.,40.)) ;
#190=CARTESIAN_POINT('Line Origine',(9.89372017985E-007,0.,35.5)) ;
#194=CARTESIAN_POINT('Vertex',(1.27660907213E-006,0.,40.)) ;
#197=CARTESIAN_POINT('Line Origine',(1.27660907213E-006,0.5,40.)) ;
#201=CARTESIAN_POINT('Vertex',(1.27660907213E-006,1.,40.)) ;
#204=CARTESIAN_POINT('Line Origine',(9.89372017985E-007,1.,35.5)) ;
#216=CARTESIAN_POINT('Axis2P3D Location',(46.8045749664,0.,40.)) ;
#221=CARTESIAN_POINT('Line Origine',(23.4022881215,0.,40.)) ;
#225=CARTESIAN_POINT('Vertex',(46.8045749664,0.,40.)) ;
#228=CARTESIAN_POINT('Line Origine',(46.8045749664,0.5,40.)) ;
#232=CARTESIAN_POINT('Vertex',(46.8045749664,1.,40.)) ;
#235=CARTESIAN_POINT('Line Origine',(23.4022881215,1.,40.)) ;
#247=CARTESIAN_POINT('Line Origine',(53.4022881215,0.,40.)) ;
#251=CARTESIAN_POINT('Vertex',(60.0000012766,0.,40.)) ;
#254=CARTESIAN_POINT('Line Origine',(60.0000012766,0.5,40.)) ;
#258=CARTESIAN_POINT('Vertex',(60.0000012766,1.,40.)) ;
#261=CARTESIAN_POINT('Line Origine',(53.4022881215,1.,40.)) ;
#273=CARTESIAN_POINT('Axis2P3D Location',(60.0000012766,0.,36.4336719513)) ;
#278=CARTESIAN_POINT('Line Origine',(60.0000012766,0.,38.2168359756)) ;
#282=CARTESIAN_POINT('Vertex',(60.0000012766,0.,36.4336719513)) ;
#285=CARTESIAN_POINT('Line Origine',(60.0000012766,0.5,36.4336719513)) ;
#289=CARTESIAN_POINT('Vertex',(60.0000012766,1.,36.4336719513)) ;
#292=CARTESIAN_POINT('Line Origine',(60.0000012766,1.,38.2168359756)) ;
#304=CARTESIAN_POINT('Line Origine',(60.0000012766,0.,28.978182328)) ;
#308=CARTESIAN_POINT('Vertex',(60.0000012766,0.,21.5226927047)) ;
#311=CARTESIAN_POINT('Line Origine',(60.0000012766,0.5,21.5226927047)) ;
#315=CARTESIAN_POINT('Vertex',(60.0000012766,1.,21.5226927047)) ;
#318=CARTESIAN_POINT('Line Origine',(60.0000012766,1.,28.978182328)) ;
#330=CARTESIAN_POINT('Line Origine',(60.0000012766,0.,10.7613463524)) ;
#334=CARTESIAN_POINT('Vertex',(60.0000012766,0.,-7.1054273576E-015)) ;
#337=CARTESIAN_POINT('Line Origine',(60.0000012766,0.5,-7.1054273576E-015)) ;
#341=CARTESIAN_POINT('Vertex',(60.0000012766,1.,-7.1054273576E-015)) ;
#344=CARTESIAN_POINT('Line Origine',(60.0000012766,1.,10.7613463524)) ;
#356=CARTESIAN_POINT('Axis2P3D Location',(50.,0.,0.)) ;
#361=CARTESIAN_POINT('Line Origine',(55.0000006383,0.,0.)) ;
#365=CARTESIAN_POINT('Vertex',(50.,0.,0.)) ;
#368=CARTESIAN_POINT('Line Origine',(50.,0.5,0.)) ;
#372=CARTESIAN_POINT('Vertex',(50.,1.,0.)) ;
#375=CARTESIAN_POINT('Line Origine',(55.0000006383,1.,0.)) ;
#387=CARTESIAN_POINT('Line Origine',(25.,0.,0.)) ;
#392=CARTESIAN_POINT('Line Origine',(25.,1.,0.)) ;
#404=CARTESIAN_POINT('Axis2P3D Location',(50.,0.5,35.)) ;
#409=CARTESIAN_POINT('Axis2P3D Location',(50.,1.,35.)) ;
#413=CARTESIAN_POINT('Vertex',(53.,1.,35.)) ;
#415=CARTESIAN_POINT('Vertex',(47.,1.,35.)) ;
#418=CARTESIAN_POINT('Line Origine',(47.,0.5,35.)) ;
#422=CARTESIAN_POINT('Vertex',(47.,0.,35.)) ;
#425=CARTESIAN_POINT('Axis2P3D Location',(50.,0.,35.)) ;
#429=CARTESIAN_POINT('Vertex',(53.,0.,35.)) ;
#432=CARTESIAN_POINT('Line Origine',(53.,0.5,35.)) ;
#444=CARTESIAN_POINT('Axis2P3D Location',(50.,1.,35.)) ;
#449=CARTESIAN_POINT('Axis2P3D Location',(50.,0.,35.)) ;
#461=CARTESIAN_POINT('Axis2P3D Location',(50.,0.5,5.)) ;
#466=CARTESIAN_POINT('Axis2P3D Location',(50.,1.,5.)) ;
#470=CARTESIAN_POINT('Vertex',(53.,1.,5.)) ;
#472=CARTESIAN_POINT('Vertex',(47.,1.,5.)) ;
#475=CARTESIAN_POINT('Line Origine',(47.,0.5,5.)) ;
#479=CARTESIAN_POINT('Vertex',(47.,0.,5.)) ;
#482=CARTESIAN_POINT('Axis2P3D Location',(50.,0.,5.)) ;
#486=CARTESIAN_POINT('Vertex',(53.,0.,5.)) ;
#489=CARTESIAN_POINT('Line Origine',(53.,0.5,5.)) ;
#501=CARTESIAN_POINT('Axis2P3D Location',(50.,1.,5.)) ;
#506=CARTESIAN_POINT('Axis2P3D Location',(50.,0.,5.)) ;
#518=CARTESIAN_POINT('Axis2P3D Location',(0.,0.,0.)) ;
#546=CARTESIAN_POINT('Axis2P3D Location',(0.,1.,0.)) ;
#53=DIRECTION('Axis2P3D Direction',(1.,0.,-3.00100371846E-016)) ;
#54=DIRECTION('Axis2P3D XDirection',(-3.00100371846E-016,0.,-1.)) ;
#58=DIRECTION('Vector Direction',(0.,1.,0.)) ;
#67=DIRECTION('Vector Direction',(-3.00100371846E-016,0.,-1.)) ;
#74=DIRECTION('Vector Direction',(0.,1.,0.)) ;
#81=DIRECTION('Vector Direction',(-3.00100371846E-016,0.,-1.)) ;
#93=DIRECTION('Axis2P3D Direction',(0.,0.,-1.)) ;
#94=DIRECTION('Axis2P3D XDirection',(-1.,0.,0.)) ;
#98=DIRECTION('Vector Direction',(-1.,0.,0.)) ;
#105=DIRECTION('Vector Direction',(0.,1.,0.)) ;
#112=DIRECTION('Vector Direction',(-1.,0.,0.)) ;
#124=DIRECTION('Axis2P3D Direction',(0.,1.,-0.)) ;
#125=DIRECTION('Axis2P3D XDirection',(-2.83276944882E-016,0.,1.)) ;
#129=DIRECTION('Axis2P3D Direction',(0.,1.,-0.)) ;
#136=DIRECTION('Vector Direction',(0.,1.,0.)) ;
#143=DIRECTION('Axis2P3D Direction',(0.,1.,-0.)) ;
#155=DIRECTION('Axis2P3D Direction',(0.,0.,1.)) ;
#156=DIRECTION('Axis2P3D XDirection',(1.,0.,0.)) ;
#160=DIRECTION('Vector Direction',(1.,0.,0.)) ;
#167=DIRECTION('Vector Direction',(0.,1.,0.)) ;
#174=DIRECTION('Vector Direction',(1.,0.,0.)) ;
#186=DIRECTION('Axis2P3D Direction',(1.,0.,-6.3830456476E-008)) ;
#187=DIRECTION('Axis2P3D XDirection',(-6.3830456476E-008,0.,-1.)) ;
#191=DIRECTION('Vector Direction',(-6.3830456476E-008,0.,-1.)) ;
#198=DIRECTION('Vector Direction',(0.,1.,0.)) ;
#205=DIRECTION('Vector Direction',(-6.3830456476E-008,0.,-1.)) ;
#217=DIRECTION('Axis2P3D Direction',(0.,0.,-1.)) ;
#218=DIRECTION('Axis2P3D XDirection',(-1.,0.,0.)) ;
#222=DIRECTION('Vector Direction',(-1.,0.,0.)) ;
#229=DIRECTION('Vector Direction',(0.,1.,0.)) ;
#236=DIRECTION('Vector Direction',(-1.,0.,0.)) ;
#248=DIRECTION('Vector Direction',(-1.,0.,0.)) ;
#255=DIRECTION('Vector Direction',(0.,1.,0.)) ;
#262=DIRECTION('Vector Direction',(-1.,0.,0.)) ;
#274=DIRECTION('Axis2P3D Direction',(-1.,0.,0.)) ;
#275=DIRECTION('Axis2P3D XDirection',(0.,0.,1.)) ;
#279=DIRECTION('Vector Direction',(0.,0.,1.)) ;
#286=DIRECTION('Vector Direction',(0.,1.,0.)) ;
#293=DIRECTION('Vector Direction',(0.,0.,1.)) ;
#305=DIRECTION('Vector Direction',(0.,0.,1.)) ;
#312=DIRECTION('Vector Direction',(0.,1.,0.)) ;
#319=DIRECTION('Vector Direction',(0.,0.,1.)) ;
#331=DIRECTION('Vector Direction',(0.,0.,1.)) ;
#338=DIRECTION('Vector Direction',(0.,1.,0.)) ;
#345=DIRECTION('Vector Direction',(0.,0.,1.)) ;
#357=DIRECTION('Axis2P3D Direction',(0.,0.,1.)) ;
#358=DIRECTION('Axis2P3D XDirection',(1.,0.,0.)) ;
#362=DIRECTION('Vector Direction',(1.,0.,0.)) ;
#369=DIRECTION('Vector Direction',(0.,1.,0.)) ;
#376=DIRECTION('Vector Direction',(1.,0.,0.)) ;
#388=DIRECTION('Vector Direction',(1.,0.,0.)) ;
#393=DIRECTION('Vector Direction',(1.,0.,0.)) ;
#405=DIRECTION('Axis2P3D Direction',(0.,1.,-0.)) ;
#406=DIRECTION('Axis2P3D XDirection',(-1.,0.,0.)) ;
#410=DIRECTION('Axis2P3D Direction',(0.,1.,-0.)) ;
#419=DIRECTION('Vector Direction',(0.,1.,0.)) ;
#426=DIRECTION('Axis2P3D Direction',(0.,1.,-0.)) ;
#433=DIRECTION('Vector Direction',(0.,1.,0.)) ;
#445=DIRECTION('Axis2P3D Direction',(0.,1.,-0.)) ;
#450=DIRECTION('Axis2P3D Direction',(0.,1.,-0.)) ;
#462=DIRECTION('Axis2P3D Direction',(0.,1.,-0.)) ;
#463=DIRECTION('Axis2P3D XDirection',(-1.,0.,0.)) ;
#467=DIRECTION('Axis2P3D Direction',(0.,1.,-0.)) ;
#476=DIRECTION('Vector Direction',(0.,1.,0.)) ;
#483=DIRECTION('Axis2P3D Direction',(0.,1.,-0.)) ;
#490=DIRECTION('Vector Direction',(0.,1.,0.)) ;
#502=DIRECTION('Axis2P3D Direction',(0.,1.,-0.)) ;
#507=DIRECTION('Axis2P3D Direction',(0.,1.,-0.)) ;
#519=DIRECTION('Axis2P3D Direction',(0.,1.,-0.)) ;
#520=DIRECTION('Axis2P3D XDirection',(-1.,0.,0.)) ;
#547=DIRECTION('Axis2P3D Direction',(0.,1.,-0.)) ;
#548=DIRECTION('Axis2P3D XDirection',(-1.,0.,0.)) ;
#48=AXIS2_PLACEMENT_3D(' ',#47,$,$) ;
#55=AXIS2_PLACEMENT_3D('Plane Axis2P3D',#52,#53,#54) ;
#95=AXIS2_PLACEMENT_3D('Plane Axis2P3D',#92,#93,#94) ;
#126=AXIS2_PLACEMENT_3D('Cylinder Axis2P3D',#123,#124,#125) ;
#130=AXIS2_PLACEMENT_3D('Circle Axis2P3D',#128,#129,$) ;
#144=AXIS2_PLACEMENT_3D('Circle Axis2P3D',#142,#143,$) ;
#157=AXIS2_PLACEMENT_3D('Plane Axis2P3D',#154,#155,#156) ;
#188=AXIS2_PLACEMENT_3D('Plane Axis2P3D',#185,#186,#187) ;
#219=AXIS2_PLACEMENT_3D('Plane Axis2P3D',#216,#217,#218) ;
#276=AXIS2_PLACEMENT_3D('Plane Axis2P3D',#273,#274,#275) ;
#359=AXIS2_PLACEMENT_3D('Plane Axis2P3D',#356,#357,#358) ;
#407=AXIS2_PLACEMENT_3D('Cylinder Axis2P3D',#404,#405,#406) ;
#411=AXIS2_PLACEMENT_3D('Circle Axis2P3D',#409,#410,$) ;
#427=AXIS2_PLACEMENT_3D('Circle Axis2P3D',#425,#426,$) ;
#446=AXIS2_PLACEMENT_3D('Circle Axis2P3D',#444,#445,$) ;
#451=AXIS2_PLACEMENT_3D('Circle Axis2P3D',#449,#450,$) ;
#464=AXIS2_PLACEMENT_3D('Cylinder Axis2P3D',#461,#462,#463) ;
#468=AXIS2_PLACEMENT_3D('Circle Axis2P3D',#466,#467,$) ;
#484=AXIS2_PLACEMENT_3D('Circle Axis2P3D',#482,#483,$) ;
#503=AXIS2_PLACEMENT_3D('Circle Axis2P3D',#501,#502,$) ;
#508=AXIS2_PLACEMENT_3D('Circle Axis2P3D',#506,#507,$) ;
#521=AXIS2_PLACEMENT_3D('Plane Axis2P3D',#518,#519,#520) ;
#549=AXIS2_PLACEMENT_3D('Plane Axis2P3D',#546,#547,#548) ;
#40=PRODUCT_DEFINITION_SHAPE(' ',' ',#14) ;
#31=APPROVAL_PERSON_ORGANIZATION(#25,#21,#19) ;
#25=PERSON_AND_ORGANIZATION(#22,#23) ;
#22=PERSON(' ',' ',' ',$,$,$) ;
#23=ORGANIZATION(' ',' ',' ') ;
#21=APPROVAL(#20,' ') ;
#20=APPROVAL_STATUS('not_yet_approved') ;
#19=APPROVAL_ROLE('APPROVER') ;
#13=DATE_AND_TIME(#11,#12) ;
#12=LOCAL_TIME(15,13,0.,#10) ;
#10=COORDINATED_UNIVERSAL_TIME_OFFSET(0,0,.AHEAD.) ;
#86=ORIENTED_EDGE('',*,*,#65,.F.) ;
#87=ORIENTED_EDGE('',*,*,#72,.T.) ;
#88=ORIENTED_EDGE('',*,*,#79,.T.) ;
#89=ORIENTED_EDGE('',*,*,#84,.F.) ;
#117=ORIENTED_EDGE('',*,*,#79,.F.) ;
#118=ORIENTED_EDGE('',*,*,#103,.T.) ;
#119=ORIENTED_EDGE('',*,*,#110,.T.) ;
#120=ORIENTED_EDGE('',*,*,#115,.F.) ;
#148=ORIENTED_EDGE('',*,*,#110,.F.) ;
#149=ORIENTED_EDGE('',*,*,#134,.T.) ;
#150=ORIENTED_EDGE('',*,*,#141,.T.) ;
#151=ORIENTED_EDGE('',*,*,#146,.F.) ;
#179=ORIENTED_EDGE('',*,*,#141,.F.) ;
#180=ORIENTED_EDGE('',*,*,#165,.T.) ;
#181=ORIENTED_EDGE('',*,*,#172,.T.) ;
#182=ORIENTED_EDGE('',*,*,#177,.F.) ;
#210=ORIENTED_EDGE('',*,*,#172,.F.) ;
#211=ORIENTED_EDGE('',*,*,#196,.T.) ;
#212=ORIENTED_EDGE('',*,*,#203,.T.) ;
#213=ORIENTED_EDGE('',*,*,#208,.F.) ;
#241=ORIENTED_EDGE('',*,*,#203,.F.) ;
#242=ORIENTED_EDGE('',*,*,#227,.T.) ;
#243=ORIENTED_EDGE('',*,*,#234,.T.) ;
#244=ORIENTED_EDGE('',*,*,#239,.F.) ;
#267=ORIENTED_EDGE('',*,*,#234,.F.) ;
#268=ORIENTED_EDGE('',*,*,#253,.T.) ;
#269=ORIENTED_EDGE('',*,*,#260,.T.) ;
#270=ORIENTED_EDGE('',*,*,#265,.F.) ;
#298=ORIENTED_EDGE('',*,*,#260,.F.) ;
#299=ORIENTED_EDGE('',*,*,#284,.T.) ;
#300=ORIENTED_EDGE('',*,*,#291,.T.) ;
#301=ORIENTED_EDGE('',*,*,#296,.F.) ;
#324=ORIENTED_EDGE('',*,*,#291,.F.) ;
#325=ORIENTED_EDGE('',*,*,#310,.T.) ;
#326=ORIENTED_EDGE('',*,*,#317,.T.) ;
#327=ORIENTED_EDGE('',*,*,#322,.F.) ;
#350=ORIENTED_EDGE('',*,*,#317,.F.) ;
#351=ORIENTED_EDGE('',*,*,#336,.T.) ;
#352=ORIENTED_EDGE('',*,*,#343,.T.) ;
#353=ORIENTED_EDGE('',*,*,#348,.F.) ;
#381=ORIENTED_EDGE('',*,*,#343,.F.) ;
#382=ORIENTED_EDGE('',*,*,#367,.T.) ;
#383=ORIENTED_EDGE('',*,*,#374,.T.) ;
#384=ORIENTED_EDGE('',*,*,#379,.F.) ;
#398=ORIENTED_EDGE('',*,*,#374,.F.) ;
#399=ORIENTED_EDGE('',*,*,#391,.T.) ;
#400=ORIENTED_EDGE('',*,*,#65,.T.) ;
#401=ORIENTED_EDGE('',*,*,#396,.F.) ;
#438=ORIENTED_EDGE('',*,*,#417,.T.) ;
#439=ORIENTED_EDGE('',*,*,#424,.F.) ;
#440=ORIENTED_EDGE('',*,*,#431,.F.) ;
#441=ORIENTED_EDGE('',*,*,#436,.T.) ;
#455=ORIENTED_EDGE('',*,*,#448,.T.) ;
#456=ORIENTED_EDGE('',*,*,#436,.F.) ;
#457=ORIENTED_EDGE('',*,*,#453,.F.) ;
#458=ORIENTED_EDGE('',*,*,#424,.T.) ;
#495=ORIENTED_EDGE('',*,*,#474,.T.) ;
#496=ORIENTED_EDGE('',*,*,#481,.F.) ;
#497=ORIENTED_EDGE('',*,*,#488,.F.) ;
#498=ORIENTED_EDGE('',*,*,#493,.T.) ;
#512=ORIENTED_EDGE('',*,*,#505,.T.) ;
#513=ORIENTED_EDGE('',*,*,#493,.F.) ;
#514=ORIENTED_EDGE('',*,*,#510,.F.) ;
#515=ORIENTED_EDGE('',*,*,#481,.T.) ;
#524=ORIENTED_EDGE('',*,*,#391,.F.) ;
#525=ORIENTED_EDGE('',*,*,#367,.F.) ;
#526=ORIENTED_EDGE('',*,*,#336,.F.) ;
#527=ORIENTED_EDGE('',*,*,#310,.F.) ;
#528=ORIENTED_EDGE('',*,*,#284,.F.) ;
#529=ORIENTED_EDGE('',*,*,#253,.F.) ;
#530=ORIENTED_EDGE('',*,*,#227,.F.) ;
#531=ORIENTED_EDGE('',*,*,#196,.F.) ;
#532=ORIENTED_EDGE('',*,*,#165,.F.) ;
#533=ORIENTED_EDGE('',*,*,#134,.F.) ;
#534=ORIENTED_EDGE('',*,*,#103,.F.) ;
#535=ORIENTED_EDGE('',*,*,#72,.F.) ;
#538=ORIENTED_EDGE('',*,*,#453,.T.) ;
#539=ORIENTED_EDGE('',*,*,#431,.T.) ;
#542=ORIENTED_EDGE('',*,*,#510,.T.) ;
#543=ORIENTED_EDGE('',*,*,#488,.T.) ;
#552=ORIENTED_EDGE('',*,*,#84,.T.) ;
#553=ORIENTED_EDGE('',*,*,#115,.T.) ;
#554=ORIENTED_EDGE('',*,*,#146,.T.) ;
#555=ORIENTED_EDGE('',*,*,#177,.T.) ;
#556=ORIENTED_EDGE('',*,*,#208,.T.) ;
#557=ORIENTED_EDGE('',*,*,#239,.T.) ;
#558=ORIENTED_EDGE('',*,*,#265,.T.) ;
#559=ORIENTED_EDGE('',*,*,#296,.T.) ;
#560=ORIENTED_EDGE('',*,*,#322,.T.) ;
#561=ORIENTED_EDGE('',*,*,#348,.T.) ;
#562=ORIENTED_EDGE('',*,*,#379,.T.) ;
#563=ORIENTED_EDGE('',*,*,#396,.T.) ;
#566=ORIENTED_EDGE('',*,*,#417,.F.) ;
#567=ORIENTED_EDGE('',*,*,#448,.F.) ;
#570=ORIENTED_EDGE('',*,*,#474,.F.) ;
#571=ORIENTED_EDGE('',*,*,#505,.F.) ;
#540=FACE_BOUND('',#537,.T.) ;
#544=FACE_BOUND('',#541,.T.) ;
#568=FACE_BOUND('',#565,.T.) ;
#572=FACE_BOUND('',#569,.T.) ;
#51=CLOSED_SHELL('Closed Shell',(#91,#122,#153,#184,#215,#246,#272,#303,#329,#355,#386,#403,#443,#460,#500,#517,#545,#573)) ;
#59=VECTOR('Line Direction',#58,1.) ;
#68=VECTOR('Line Direction',#67,1.) ;
#75=VECTOR('Line Direction',#74,1.) ;
#82=VECTOR('Line Direction',#81,1.) ;
#99=VECTOR('Line Direction',#98,1.) ;
#106=VECTOR('Line Direction',#105,1.) ;
#113=VECTOR('Line Direction',#112,1.) ;
#137=VECTOR('Line Direction',#136,1.) ;
#161=VECTOR('Line Direction',#160,1.) ;
#168=VECTOR('Line Direction',#167,1.) ;
#175=VECTOR('Line Direction',#174,1.) ;
#192=VECTOR('Line Direction',#191,1.) ;
#199=VECTOR('Line Direction',#198,1.) ;
#206=VECTOR('Line Direction',#205,1.) ;
#223=VECTOR('Line Direction',#222,1.) ;
#230=VECTOR('Line Direction',#229,1.) ;
#237=VECTOR('Line Direction',#236,1.) ;
#249=VECTOR('Line Direction',#248,1.) ;
#256=VECTOR('Line Direction',#255,1.) ;
#263=VECTOR('Line Direction',#262,1.) ;
#280=VECTOR('Line Direction',#279,1.) ;
#287=VECTOR('Line Direction',#286,1.) ;
#294=VECTOR('Line Direction',#293,1.) ;
#306=VECTOR('Line Direction',#305,1.) ;
#313=VECTOR('Line Direction',#312,1.) ;
#320=VECTOR('Line Direction',#319,1.) ;
#332=VECTOR('Line Direction',#331,1.) ;
#339=VECTOR('Line Direction',#338,1.) ;
#346=VECTOR('Line Direction',#345,1.) ;
#363=VECTOR('Line Direction',#362,1.) ;
#370=VECTOR('Line Direction',#369,1.) ;
#377=VECTOR('Line Direction',#376,1.) ;
#389=VECTOR('Line Direction',#388,1.) ;
#394=VECTOR('Line Direction',#393,1.) ;
#420=VECTOR('Line Direction',#419,1.) ;
#434=VECTOR('Line Direction',#433,1.) ;
#477=VECTOR('Line Direction',#476,1.) ;
#491=VECTOR('Line Direction',#490,1.) ;
#575=ADVANCED_BREP_SHAPE_REPRESENTATION('NONE',(#574),#46) ;
#49=SHAPE_REPRESENTATION(' ',(#48),#46) ;
#91=ADVANCED_FACE('Corps principal',(#90),#56,.F.) ;
#122=ADVANCED_FACE('Corps principal',(#121),#96,.F.) ;
#153=ADVANCED_FACE('Corps principal',(#152),#127,.F.) ;
#184=ADVANCED_FACE('Corps principal',(#183),#158,.F.) ;
#215=ADVANCED_FACE('Corps principal',(#214),#189,.F.) ;
#246=ADVANCED_FACE('Corps principal',(#245),#220,.F.) ;
#272=ADVANCED_FACE('Corps principal',(#271),#220,.F.) ;
#303=ADVANCED_FACE('Corps principal',(#302),#277,.F.) ;
#329=ADVANCED_FACE('Corps principal',(#328),#277,.F.) ;
#355=ADVANCED_FACE('Corps principal',(#354),#277,.F.) ;
#386=ADVANCED_FACE('Corps principal',(#385),#360,.F.) ;
#403=ADVANCED_FACE('Corps principal',(#402),#360,.F.) ;
#443=ADVANCED_FACE('Corps principal',(#442),#408,.F.) ;
#460=ADVANCED_FACE('Corps principal',(#459),#408,.F.) ;
#500=ADVANCED_FACE('Corps principal',(#499),#465,.F.) ;
#517=ADVANCED_FACE('Corps principal',(#516),#465,.F.) ;
#545=ADVANCED_FACE('Corps principal',(#536,#540,#544),#522,.F.) ;
#573=ADVANCED_FACE('Corps principal',(#564,#568,#572),#550,.T.) ;
#4=APPLICATION_PROTOCOL_DEFINITION('international standard','config_control_design',1994,#1) ;
#32=APPROVAL_DATE_TIME(#13,#21) ;
#574=MANIFOLD_SOLID_BREP('Corps principal',#51) ;
#11=CALENDAR_DATE(2021,1,5) ;
#30=CC_DESIGN_APPROVAL(#21,(#16,#6,#14)) ;
#18=CC_DESIGN_DATE_AND_TIME_ASSIGNMENT(#13,#17,(#16)) ;
#29=CC_DESIGN_DATE_AND_TIME_ASSIGNMENT(#13,#28,(#14)) ;
#17=DATE_TIME_ROLE('classification_date') ;
#28=DATE_TIME_ROLE('creation_date') ;
#27=CC_DESIGN_PERSON_AND_ORGANIZATION_ASSIGNMENT(#25,#26,(#16)) ;
#33=CC_DESIGN_PERSON_AND_ORGANIZATION_ASSIGNMENT(#25,#34,(#6)) ;
#35=CC_DESIGN_PERSON_AND_ORGANIZATION_ASSIGNMENT(#25,#36,(#6,#14)) ;
#37=CC_DESIGN_PERSON_AND_ORGANIZATION_ASSIGNMENT(#25,#38,(#5)) ;
#26=PERSON_AND_ORGANIZATION_ROLE('classification_officer') ;
#34=PERSON_AND_ORGANIZATION_ROLE('design_supplier') ;
#36=PERSON_AND_ORGANIZATION_ROLE('creator') ;
#38=PERSON_AND_ORGANIZATION_ROLE('design_owner') ;
#39=CC_DESIGN_SECURITY_CLASSIFICATION(#16,(#6)) ;
#131=CIRCLE('generated circle',#130,11.) ;
#145=CIRCLE('generated circle',#144,11.) ;
#412=CIRCLE('generated circle',#411,3.) ;
#428=CIRCLE('generated circle',#427,3.) ;
#447=CIRCLE('generated circle',#446,3.) ;
#452=CIRCLE('generated circle',#451,3.) ;
#469=CIRCLE('generated circle',#468,3.) ;
#485=CIRCLE('generated circle',#484,3.) ;
#504=CIRCLE('generated circle',#503,3.) ;
#509=CIRCLE('generated circle',#508,3.) ;
#576=SHAPE_REPRESENTATION_RELATIONSHIP(' ',' ',#49,#575) ;
#127=CYLINDRICAL_SURFACE('generated cylinder',#126,11.) ;
#408=CYLINDRICAL_SURFACE('generated cylinder',#407,3.) ;
#465=CYLINDRICAL_SURFACE('generated cylinder',#464,3.) ;
#3=DESIGN_CONTEXT(' ',#1,'design') ;
#65=EDGE_CURVE('',#62,#64,#60,.T.) ;
#72=EDGE_CURVE('',#62,#71,#69,.F.) ;
#79=EDGE_CURVE('',#71,#78,#76,.T.) ;
#84=EDGE_CURVE('',#64,#78,#83,.F.) ;
#103=EDGE_CURVE('',#71,#102,#100,.F.) ;
#110=EDGE_CURVE('',#102,#109,#107,.T.) ;
#115=EDGE_CURVE('',#78,#109,#114,.F.) ;
#134=EDGE_CURVE('',#102,#133,#131,.F.) ;
#141=EDGE_CURVE('',#133,#140,#138,.T.) ;
#146=EDGE_CURVE('',#109,#140,#145,.F.) ;
#165=EDGE_CURVE('',#133,#164,#162,.F.) ;
#172=EDGE_CURVE('',#164,#171,#169,.T.) ;
#177=EDGE_CURVE('',#140,#171,#176,.F.) ;
#196=EDGE_CURVE('',#164,#195,#193,.F.) ;
#203=EDGE_CURVE('',#195,#202,#200,.T.) ;
#208=EDGE_CURVE('',#171,#202,#207,.F.) ;
#227=EDGE_CURVE('',#195,#226,#224,.F.) ;
#234=EDGE_CURVE('',#226,#233,#231,.T.) ;
#239=EDGE_CURVE('',#202,#233,#238,.F.) ;
#253=EDGE_CURVE('',#226,#252,#250,.F.) ;
#260=EDGE_CURVE('',#252,#259,#257,.T.) ;
#265=EDGE_CURVE('',#233,#259,#264,.F.) ;
#284=EDGE_CURVE('',#252,#283,#281,.F.) ;
#291=EDGE_CURVE('',#283,#290,#288,.T.) ;
#296=EDGE_CURVE('',#259,#290,#295,.F.) ;
#310=EDGE_CURVE('',#283,#309,#307,.F.) ;
#317=EDGE_CURVE('',#309,#316,#314,.T.) ;
#322=EDGE_CURVE('',#290,#316,#321,.F.) ;
#336=EDGE_CURVE('',#309,#335,#333,.F.) ;
#343=EDGE_CURVE('',#335,#342,#340,.T.) ;
#348=EDGE_CURVE('',#316,#342,#347,.F.) ;
#367=EDGE_CURVE('',#335,#366,#364,.F.) ;
#374=EDGE_CURVE('',#366,#373,#371,.T.) ;
#379=EDGE_CURVE('',#342,#373,#378,.F.) ;
#391=EDGE_CURVE('',#366,#62,#390,.F.) ;
#396=EDGE_CURVE('',#373,#64,#395,.F.) ;
#417=EDGE_CURVE('',#414,#416,#412,.T.) ;
#424=EDGE_CURVE('',#423,#416,#421,.T.) ;
#431=EDGE_CURVE('',#430,#423,#428,.T.) ;
#436=EDGE_CURVE('',#430,#414,#435,.T.) ;
#448=EDGE_CURVE('',#416,#414,#447,.T.) ;
#453=EDGE_CURVE('',#423,#430,#452,.T.) ;
#474=EDGE_CURVE('',#471,#473,#469,.T.) ;
#481=EDGE_CURVE('',#480,#473,#478,.T.) ;
#488=EDGE_CURVE('',#487,#480,#485,.T.) ;
#493=EDGE_CURVE('',#487,#471,#492,.T.) ;
#505=EDGE_CURVE('',#473,#471,#504,.T.) ;
#510=EDGE_CURVE('',#480,#487,#509,.T.) ;
#85=EDGE_LOOP('',(#86,#87,#88,#89)) ;
#116=EDGE_LOOP('',(#117,#118,#119,#120)) ;
#147=EDGE_LOOP('',(#148,#149,#150,#151)) ;
#178=EDGE_LOOP('',(#179,#180,#181,#182)) ;
#209=EDGE_LOOP('',(#210,#211,#212,#213)) ;
#240=EDGE_LOOP('',(#241,#242,#243,#244)) ;
#266=EDGE_LOOP('',(#267,#268,#269,#270)) ;
#297=EDGE_LOOP('',(#298,#299,#300,#301)) ;
#323=EDGE_LOOP('',(#324,#325,#326,#327)) ;
#349=EDGE_LOOP('',(#350,#351,#352,#353)) ;
#380=EDGE_LOOP('',(#381,#382,#383,#384)) ;
#397=EDGE_LOOP('',(#398,#399,#400,#401)) ;
#437=EDGE_LOOP('',(#438,#439,#440,#441)) ;
#454=EDGE_LOOP('',(#455,#456,#457,#458)) ;
#494=EDGE_LOOP('',(#495,#496,#497,#498)) ;
#511=EDGE_LOOP('',(#512,#513,#514,#515)) ;
#523=EDGE_LOOP('',(#524,#525,#526,#527,#528,#529,#530,#531,#532,#533,#534,#535)) ;
#537=EDGE_LOOP('',(#538,#539)) ;
#541=EDGE_LOOP('',(#542,#543)) ;
#551=EDGE_LOOP('',(#552,#553,#554,#555,#556,#557,#558,#559,#560,#561,#562,#563)) ;
#565=EDGE_LOOP('',(#566,#567)) ;
#569=EDGE_LOOP('',(#570,#571)) ;
#90=FACE_OUTER_BOUND('',#85,.T.) ;
#121=FACE_OUTER_BOUND('',#116,.T.) ;
#152=FACE_OUTER_BOUND('',#147,.T.) ;
#183=FACE_OUTER_BOUND('',#178,.T.) ;
#214=FACE_OUTER_BOUND('',#209,.T.) ;
#245=FACE_OUTER_BOUND('',#240,.T.) ;
#271=FACE_OUTER_BOUND('',#266,.T.) ;
#302=FACE_OUTER_BOUND('',#297,.T.) ;
#328=FACE_OUTER_BOUND('',#323,.T.) ;
#354=FACE_OUTER_BOUND('',#349,.T.) ;
#385=FACE_OUTER_BOUND('',#380,.T.) ;
#402=FACE_OUTER_BOUND('',#397,.T.) ;
#442=FACE_OUTER_BOUND('',#437,.T.) ;
#459=FACE_OUTER_BOUND('',#454,.T.) ;
#499=FACE_OUTER_BOUND('',#494,.T.) ;
#516=FACE_OUTER_BOUND('',#511,.T.) ;
#536=FACE_OUTER_BOUND('',#523,.T.) ;
#564=FACE_OUTER_BOUND('',#551,.T.) ;
#45=UNCERTAINTY_MEASURE_WITH_UNIT(LENGTH_MEASURE(0.005),#41,'distance_accuracy_value','CONFUSED CURVE UNCERTAINTY') ;
#60=LINE('Line',#57,#59) ;
#69=LINE('Line',#66,#68) ;
#76=LINE('Line',#73,#75) ;
#83=LINE('Line',#80,#82) ;
#100=LINE('Line',#97,#99) ;
#107=LINE('Line',#104,#106) ;
#114=LINE('Line',#111,#113) ;
#138=LINE('Line',#135,#137) ;
#162=LINE('Line',#159,#161) ;
#169=LINE('Line',#166,#168) ;
#176=LINE('Line',#173,#175) ;
#193=LINE('Line',#190,#192) ;
#200=LINE('Line',#197,#199) ;
#207=LINE('Line',#204,#206) ;
#224=LINE('Line',#221,#223) ;
#231=LINE('Line',#228,#230) ;
#238=LINE('Line',#235,#237) ;
#250=LINE('Line',#247,#249) ;
#257=LINE('Line',#254,#256) ;
#264=LINE('Line',#261,#263) ;
#281=LINE('Line',#278,#280) ;
#288=LINE('Line',#285,#287) ;
#295=LINE('Line',#292,#294) ;
#307=LINE('Line',#304,#306) ;
#314=LINE('Line',#311,#313) ;
#321=LINE('Line',#318,#320) ;
#333=LINE('Line',#330,#332) ;
#340=LINE('Line',#337,#339) ;
#347=LINE('Line',#344,#346) ;
#364=LINE('Line',#361,#363) ;
#371=LINE('Line',#368,#370) ;
#378=LINE('Line',#375,#377) ;
#390=LINE('Line',#387,#389) ;
#395=LINE('Line',#392,#394) ;
#421=LINE('Line',#418,#420) ;
#435=LINE('Line',#432,#434) ;
#478=LINE('Line',#475,#477) ;
#492=LINE('Line',#489,#491) ;
#2=MECHANICAL_CONTEXT(' ',#1,'mechanical') ;
#24=PERSONAL_ADDRESS(' ',' ',' ',' ',' ',' ',' ',' ',' ',' ',' ',' ',(#22),' ') ;
#56=PLANE('Plane',#55) ;
#96=PLANE('Plane',#95) ;
#158=PLANE('Plane',#157) ;
#189=PLANE('Plane',#188) ;
#220=PLANE('Plane',#219) ;
#277=PLANE('Plane',#276) ;
#360=PLANE('Plane',#359) ;
#522=PLANE('Plane',#521) ;
#550=PLANE('Plane',#549) ;
#43=PLANE_ANGLE_MEASURE_WITH_UNIT(PLANE_ANGLE_MEASURE(0.0174532925199),#42) ;
#7=PRODUCT_CATEGORY('part',$) ;
#9=PRODUCT_CATEGORY_RELATIONSHIP(' ',' ',#7,#8) ;
#6=PRODUCT_DEFINITION_FORMATION_WITH_SPECIFIED_SOURCE('',' ',#5,.NOT_KNOWN.) ;
#8=PRODUCT_RELATED_PRODUCT_CATEGORY('detail',$,(#5)) ;
#50=SHAPE_DEFINITION_REPRESENTATION(#40,#49) ;
#62=VERTEX_POINT('',#61) ;
#64=VERTEX_POINT('',#63) ;
#71=VERTEX_POINT('',#70) ;
#78=VERTEX_POINT('',#77) ;
#102=VERTEX_POINT('',#101) ;
#109=VERTEX_POINT('',#108) ;
#133=VERTEX_POINT('',#132) ;
#140=VERTEX_POINT('',#139) ;
#164=VERTEX_POINT('',#163) ;
#171=VERTEX_POINT('',#170) ;
#195=VERTEX_POINT('',#194) ;
#202=VERTEX_POINT('',#201) ;
#226=VERTEX_POINT('',#225) ;
#233=VERTEX_POINT('',#232) ;
#252=VERTEX_POINT('',#251) ;
#259=VERTEX_POINT('',#258) ;
#283=VERTEX_POINT('',#282) ;
#290=VERTEX_POINT('',#289) ;
#309=VERTEX_POINT('',#308) ;
#316=VERTEX_POINT('',#315) ;
#335=VERTEX_POINT('',#334) ;
#342=VERTEX_POINT('',#341) ;
#366=VERTEX_POINT('',#365) ;
#373=VERTEX_POINT('',#372) ;
#414=VERTEX_POINT('',#413) ;
#416=VERTEX_POINT('',#415) ;
#423=VERTEX_POINT('',#422) ;
#430=VERTEX_POINT('',#429) ;
#471=VERTEX_POINT('',#470) ;
#473=VERTEX_POINT('',#472) ;
#480=VERTEX_POINT('',#479) ;
#487=VERTEX_POINT('',#486) ;
#41=(LENGTH_UNIT()NAMED_UNIT(*)SI_UNIT(.MILLI.,.METRE.)) ;
#42=(NAMED_UNIT(*)PLANE_ANGLE_UNIT()SI_UNIT($,.RADIAN.)) ;
#44=(NAMED_UNIT(*)SI_UNIT($,.STERADIAN.)SOLID_ANGLE_UNIT()) ;
#46=(GEOMETRIC_REPRESENTATION_CONTEXT(3)GLOBAL_UNCERTAINTY_ASSIGNED_CONTEXT((#45))GLOBAL_UNIT_ASSIGNED_CONTEXT((#41,#42,#44))REPRESENTATION_CONTEXT(' ',' ')) ;
ENDSEC;
END-ISO-10303-21;
