ISO-10303-21;
HEADER;
FILE_DESCRIPTION(('CATIA V5 STEP Exchange'),'2;1');

FILE_NAME('C:\\Users\\Guillaume\\Desktop\\Entretoise MT03.stp','2021-05-16T20:35:04+00:00',('none'),('none'),'CATIA Version 5 Release 21 GA (IN-10)','CATIA V5 STEP AP203','none');

FILE_SCHEMA(('CONFIG_CONTROL_DESIGN'));

ENDSEC;
/* file written by CATIA V5R21 */
DATA;
#5=PRODUCT('Part2','','',(#2)) ;
#1=APPLICATION_CONTEXT('configuration controlled 3D design of mechanical parts and assemblies') ;
#14=PRODUCT_DEFINITION('',' ',#6,#3) ;
#16=SECURITY_CLASSIFICATION(' ',' ',#15) ;
#15=SECURITY_CLASSIFICATION_LEVEL('unclassified') ;
#47=CARTESIAN_POINT(' ',(0.,0.,0.)) ;
#52=CARTESIAN_POINT('Axis2P3D Location',(114.,1.50990331349E-014,-2.8897682811E-014)) ;
#57=CARTESIAN_POINT('Line Origine',(123.25,-9.25,2.92295165938E-014)) ;
#61=CARTESIAN_POINT('Vertex',(123.,-9.,1.10214571844E-015)) ;
#63=CARTESIAN_POINT('Vertex',(123.5,-9.5,5.35677342336E-015)) ;
#66=CARTESIAN_POINT('Axis2P3D Location',(123.5,-1.7763568394E-015,-1.84083345576E-017)) ;
#70=CARTESIAN_POINT('Vertex',(123.5,9.5,-1.07898971658E-014)) ;
#73=CARTESIAN_POINT('Line Origine',(123.25,9.25,1.63509295081E-014)) ;
#77=CARTESIAN_POINT('Vertex',(123.,9.,-2.20429143688E-015)) ;
#80=CARTESIAN_POINT('Axis2P3D Location',(123.,-8.881784197E-016,-1.53837014911E-015)) ;
#92=CARTESIAN_POINT('Axis2P3D Location',(114.,8.881784197E-015,-7.54951656745E-015)) ;
#97=CARTESIAN_POINT('Axis2P3D Location',(123.5,4.4408920985E-016,8.881784197E-016)) ;
#102=CARTESIAN_POINT('Axis2P3D Location',(123.,8.881784197E-016,4.4408920985E-016)) ;
#114=CARTESIAN_POINT('Axis2P3D Location',(123.5,0.,0.)) ;
#119=CARTESIAN_POINT('Axis2P3D Location',(123.5,0.,-4.22576985403E-016)) ;
#123=CARTESIAN_POINT('Vertex',(123.5,-12.,-4.28211987902E-015)) ;
#125=CARTESIAN_POINT('Vertex',(123.5,12.,-3.36163223458E-015)) ;
#128=CARTESIAN_POINT('Axis2P3D Location',(123.5,0.,-4.22576985403E-016)) ;
#142=CARTESIAN_POINT('Axis2P3D Location',(135.5,2.6645352591E-015,-5.3119838426E-016)) ;
#147=CARTESIAN_POINT('Line Origine',(123.25,-12.25,4.4408920985E-016)) ;
#151=CARTESIAN_POINT('Vertex',(123.,-12.5,1.53075794228E-015)) ;
#154=CARTESIAN_POINT('Axis2P3D Location',(123.,2.6645352591E-015,-5.3119838426E-016)) ;
#158=CARTESIAN_POINT('Vertex',(123.,12.5,-1.41637461308E-014)) ;
#161=CARTESIAN_POINT('Line Origine',(123.25,12.25,-1.7763568394E-014)) ;
#173=CARTESIAN_POINT('Axis2P3D Location',(135.5,-8.57092175011E-014,6.39488462184E-014)) ;
#178=CARTESIAN_POINT('Axis2P3D Location',(123.,3.10862446895E-015,-2.6645352591E-015)) ;
#190=CARTESIAN_POINT('Axis2P3D Location',(61.75,0.,0.)) ;
#195=CARTESIAN_POINT('Axis2P3D Location',(0.5,0.,0.)) ;
#199=CARTESIAN_POINT('Vertex',(0.5,-9.,1.10214571844E-015)) ;
#201=CARTESIAN_POINT('Vertex',(0.5,9.,-2.20429143688E-015)) ;
#204=CARTESIAN_POINT('Line Origine',(61.75,-9.,1.10214571844E-015)) ;
#209=CARTESIAN_POINT('Line Origine',(61.75,9.,-2.20429143688E-015)) ;
#221=CARTESIAN_POINT('Axis2P3D Location',(0.5,0.,0.)) ;
#233=CARTESIAN_POINT('Axis2P3D Location',(9.5,8.881784197E-015,-7.54951656745E-015)) ;
#238=CARTESIAN_POINT('Line Origine',(0.25,9.25,2.0970879354E-016)) ;
#242=CARTESIAN_POINT('Vertex',(0.,9.5,-1.07898971658E-014)) ;
#245=CARTESIAN_POINT('Line Origine',(0.25,-9.25,2.66369999545E-015)) ;
#249=CARTESIAN_POINT('Vertex',(0.,-9.5,5.35677342336E-015)) ;
#252=CARTESIAN_POINT('Axis2P3D Location',(1.06581410364E-014,4.4408920985E-016,8.881784197E-016)) ;
#264=CARTESIAN_POINT('Axis2P3D Location',(9.5,1.50990331349E-014,-2.8897682811E-014)) ;
#269=CARTESIAN_POINT('Axis2P3D Location',(-3.19744231092E-014,-1.7763568394E-015,-1.84083345576E-017)) ;
#281=CARTESIAN_POINT('Axis2P3D Location',(61.75,0.,0.)) ;
#286=CARTESIAN_POINT('Line Origine',(61.75,-12.5,1.53075794228E-015)) ;
#290=CARTESIAN_POINT('Vertex',(0.5,-12.5,1.53075794228E-015)) ;
#293=CARTESIAN_POINT('Line Origine',(61.75,12.5,0.)) ;
#297=CARTESIAN_POINT('Vertex',(0.5,12.5,-1.41637461308E-014)) ;
#300=CARTESIAN_POINT('Axis2P3D Location',(0.5,0.,0.)) ;
#312=CARTESIAN_POINT('Axis2P3D Location',(0.5,0.,0.)) ;
#324=CARTESIAN_POINT('Axis2P3D Location',(0.,0.,0.)) ;
#329=CARTESIAN_POINT('Axis2P3D Location',(0.,0.,-4.22576985403E-016)) ;
#333=CARTESIAN_POINT('Vertex',(0.,-12.,-4.28211987902E-015)) ;
#335=CARTESIAN_POINT('Vertex',(0.,12.,-3.36163223458E-015)) ;
#338=CARTESIAN_POINT('Axis2P3D Location',(0.,0.,-4.22576985403E-016)) ;
#352=CARTESIAN_POINT('Axis2P3D Location',(-12.,-8.57092175011E-014,6.39488462184E-014)) ;
#357=CARTESIAN_POINT('Line Origine',(0.25,12.25,-1.33226762955E-015)) ;
#362=CARTESIAN_POINT('Line Origine',(0.25,-12.25,-2.44336940004E-015)) ;
#374=CARTESIAN_POINT('Axis2P3D Location',(-12.,2.6645352591E-015,-5.3119838426E-016)) ;
#53=DIRECTION('Axis2P3D Direction',(1.,-1.7763568394E-015,3.0399236291E-015)) ;
#54=DIRECTION('Axis2P3D XDirection',(-3.55614034311E-015,-0.5,0.866025403784)) ;
#58=DIRECTION('Vector Direction',(0.707106781187,-0.707106781187,4.03366156285E-015)) ;
#67=DIRECTION('Axis2P3D Direction',(1.,-1.59420853684E-017,-9.20416727887E-018)) ;
#74=DIRECTION('Vector Direction',(0.707106781187,0.707106781187,2.7775875959E-015)) ;
#81=DIRECTION('Axis2P3D Direction',(1.,-1.59420853684E-017,-9.20416727887E-018)) ;
#93=DIRECTION('Axis2P3D Direction',(1.,-8.881784197E-016,8.881784197E-016)) ;
#94=DIRECTION('Axis2P3D XDirection',(9.21962311176E-016,1.,-9.34924652316E-017)) ;
#98=DIRECTION('Axis2P3D Direction',(1.,8.30379900233E-032,8.881784197E-016)) ;
#103=DIRECTION('Axis2P3D Direction',(1.,8.30379900233E-032,8.881784197E-016)) ;
#115=DIRECTION('Axis2P3D Direction',(1.,0.,0.)) ;
#116=DIRECTION('Axis2P3D XDirection',(0.,1.,0.)) ;
#120=DIRECTION('Axis2P3D Direction',(1.,0.,0.)) ;
#129=DIRECTION('Axis2P3D Direction',(1.,0.,0.)) ;
#143=DIRECTION('Axis2P3D Direction',(-1.,0.,-7.88860905221E-031)) ;
#144=DIRECTION('Axis2P3D XDirection',(0.,-0.5,0.866025403784)) ;
#148=DIRECTION('Vector Direction',(-0.707106781187,-0.707106781187,1.25607396695E-015)) ;
#155=DIRECTION('Axis2P3D Direction',(1.,3.41586791987E-031,1.97215226305E-031)) ;
#162=DIRECTION('Vector Direction',(-0.707106781187,0.707106781187,-2.51214793389E-015)) ;
#174=DIRECTION('Axis2P3D Direction',(-1.,7.1054273576E-015,-5.3290705182E-015)) ;
#175=DIRECTION('Axis2P3D XDirection',(7.11228068621E-015,1.,2.13162820728E-016)) ;
#179=DIRECTION('Axis2P3D Direction',(1.,-1.13595970352E-030,5.3290705182E-015)) ;
#191=DIRECTION('Axis2P3D Direction',(1.,0.,0.)) ;
#192=DIRECTION('Axis2P3D XDirection',(0.,1.,0.)) ;
#196=DIRECTION('Axis2P3D Direction',(1.,0.,0.)) ;
#205=DIRECTION('Vector Direction',(1.,0.,0.)) ;
#210=DIRECTION('Vector Direction',(1.,0.,0.)) ;
#222=DIRECTION('Axis2P3D Direction',(1.,0.,0.)) ;
#234=DIRECTION('Axis2P3D Direction',(-1.,-8.881784197E-016,8.881784197E-016)) ;
#235=DIRECTION('Axis2P3D XDirection',(-9.21962311176E-016,1.,-9.34924652316E-017)) ;
#239=DIRECTION('Vector Direction',(-0.707106781187,0.707106781187,5.93146039947E-016)) ;
#246=DIRECTION('Vector Direction',(-0.707106781187,-0.707106781187,7.80738885336E-016)) ;
#253=DIRECTION('Axis2P3D Direction',(1.,-8.30379900233E-032,-8.881784197E-016)) ;
#265=DIRECTION('Axis2P3D Direction',(-1.,-1.7763568394E-015,3.0399236291E-015)) ;
#266=DIRECTION('Axis2P3D XDirection',(3.55614034311E-015,-0.5,0.866025403784)) ;
#270=DIRECTION('Axis2P3D Direction',(1.,1.59420853684E-017,9.20416727887E-018)) ;
#282=DIRECTION('Axis2P3D Direction',(1.,0.,0.)) ;
#283=DIRECTION('Axis2P3D XDirection',(0.,1.,0.)) ;
#287=DIRECTION('Vector Direction',(1.,0.,0.)) ;
#294=DIRECTION('Vector Direction',(1.,0.,0.)) ;
#301=DIRECTION('Axis2P3D Direction',(1.,0.,0.)) ;
#313=DIRECTION('Axis2P3D Direction',(1.,0.,0.)) ;
#325=DIRECTION('Axis2P3D Direction',(1.,0.,0.)) ;
#326=DIRECTION('Axis2P3D XDirection',(0.,1.,0.)) ;
#330=DIRECTION('Axis2P3D Direction',(1.,0.,0.)) ;
#339=DIRECTION('Axis2P3D Direction',(1.,0.,0.)) ;
#353=DIRECTION('Axis2P3D Direction',(1.,7.1054273576E-015,-5.3290705182E-015)) ;
#354=DIRECTION('Axis2P3D XDirection',(-7.11228068621E-015,1.,2.13162820728E-016)) ;
#358=DIRECTION('Vector Direction',(0.707106781187,0.707106781187,-3.76822190084E-015)) ;
#363=DIRECTION('Vector Direction',(0.707106781187,-0.707106781187,-3.83235803117E-015)) ;
#375=DIRECTION('Axis2P3D Direction',(1.,-0.,-7.88860905221E-031)) ;
#376=DIRECTION('Axis2P3D XDirection',(0.,-0.5,0.866025403784)) ;
#48=AXIS2_PLACEMENT_3D(' ',#47,$,$) ;
#55=AXIS2_PLACEMENT_3D('Cone Axis2P3D',#52,#53,#54) ;
#68=AXIS2_PLACEMENT_3D('Circle Axis2P3D',#66,#67,$) ;
#82=AXIS2_PLACEMENT_3D('Circle Axis2P3D',#80,#81,$) ;
#95=AXIS2_PLACEMENT_3D('Cone Axis2P3D',#92,#93,#94) ;
#99=AXIS2_PLACEMENT_3D('Circle Axis2P3D',#97,#98,$) ;
#104=AXIS2_PLACEMENT_3D('Circle Axis2P3D',#102,#103,$) ;
#117=AXIS2_PLACEMENT_3D('Plane Axis2P3D',#114,#115,#116) ;
#121=AXIS2_PLACEMENT_3D('Circle Axis2P3D',#119,#120,$) ;
#130=AXIS2_PLACEMENT_3D('Circle Axis2P3D',#128,#129,$) ;
#145=AXIS2_PLACEMENT_3D('Cone Axis2P3D',#142,#143,#144) ;
#156=AXIS2_PLACEMENT_3D('Circle Axis2P3D',#154,#155,$) ;
#176=AXIS2_PLACEMENT_3D('Cone Axis2P3D',#173,#174,#175) ;
#180=AXIS2_PLACEMENT_3D('Circle Axis2P3D',#178,#179,$) ;
#193=AXIS2_PLACEMENT_3D('Cylinder Axis2P3D',#190,#191,#192) ;
#197=AXIS2_PLACEMENT_3D('Circle Axis2P3D',#195,#196,$) ;
#223=AXIS2_PLACEMENT_3D('Circle Axis2P3D',#221,#222,$) ;
#236=AXIS2_PLACEMENT_3D('Cone Axis2P3D',#233,#234,#235) ;
#254=AXIS2_PLACEMENT_3D('Circle Axis2P3D',#252,#253,$) ;
#267=AXIS2_PLACEMENT_3D('Cone Axis2P3D',#264,#265,#266) ;
#271=AXIS2_PLACEMENT_3D('Circle Axis2P3D',#269,#270,$) ;
#284=AXIS2_PLACEMENT_3D('Cylinder Axis2P3D',#281,#282,#283) ;
#302=AXIS2_PLACEMENT_3D('Circle Axis2P3D',#300,#301,$) ;
#314=AXIS2_PLACEMENT_3D('Circle Axis2P3D',#312,#313,$) ;
#327=AXIS2_PLACEMENT_3D('Plane Axis2P3D',#324,#325,#326) ;
#331=AXIS2_PLACEMENT_3D('Circle Axis2P3D',#329,#330,$) ;
#340=AXIS2_PLACEMENT_3D('Circle Axis2P3D',#338,#339,$) ;
#355=AXIS2_PLACEMENT_3D('Cone Axis2P3D',#352,#353,#354) ;
#377=AXIS2_PLACEMENT_3D('Cone Axis2P3D',#374,#375,#376) ;
#40=PRODUCT_DEFINITION_SHAPE(' ',' ',#14) ;
#31=APPROVAL_PERSON_ORGANIZATION(#25,#21,#19) ;
#25=PERSON_AND_ORGANIZATION(#22,#23) ;
#22=PERSON(' ',' ',' ',$,$,$) ;
#23=ORGANIZATION(' ',' ',' ') ;
#21=APPROVAL(#20,' ') ;
#20=APPROVAL_STATUS('not_yet_approved') ;
#19=APPROVAL_ROLE('APPROVER') ;
#13=DATE_AND_TIME(#11,#12) ;
#12=LOCAL_TIME(22,35,4.,#10) ;
#10=COORDINATED_UNIVERSAL_TIME_OFFSET(0,0,.AHEAD.) ;
#86=ORIENTED_EDGE('',*,*,#65,.T.) ;
#87=ORIENTED_EDGE('',*,*,#72,.T.) ;
#88=ORIENTED_EDGE('',*,*,#79,.F.) ;
#89=ORIENTED_EDGE('',*,*,#84,.F.) ;
#108=ORIENTED_EDGE('',*,*,#79,.T.) ;
#109=ORIENTED_EDGE('',*,*,#101,.T.) ;
#110=ORIENTED_EDGE('',*,*,#65,.F.) ;
#111=ORIENTED_EDGE('',*,*,#106,.F.) ;
#134=ORIENTED_EDGE('',*,*,#127,.T.) ;
#135=ORIENTED_EDGE('',*,*,#132,.T.) ;
#138=ORIENTED_EDGE('',*,*,#101,.F.) ;
#139=ORIENTED_EDGE('',*,*,#72,.F.) ;
#167=ORIENTED_EDGE('',*,*,#153,.T.) ;
#168=ORIENTED_EDGE('',*,*,#160,.T.) ;
#169=ORIENTED_EDGE('',*,*,#165,.F.) ;
#170=ORIENTED_EDGE('',*,*,#127,.F.) ;
#184=ORIENTED_EDGE('',*,*,#165,.T.) ;
#185=ORIENTED_EDGE('',*,*,#182,.T.) ;
#186=ORIENTED_EDGE('',*,*,#153,.F.) ;
#187=ORIENTED_EDGE('',*,*,#132,.F.) ;
#215=ORIENTED_EDGE('',*,*,#203,.F.) ;
#216=ORIENTED_EDGE('',*,*,#208,.T.) ;
#217=ORIENTED_EDGE('',*,*,#84,.T.) ;
#218=ORIENTED_EDGE('',*,*,#213,.F.) ;
#227=ORIENTED_EDGE('',*,*,#225,.F.) ;
#228=ORIENTED_EDGE('',*,*,#213,.T.) ;
#229=ORIENTED_EDGE('',*,*,#106,.T.) ;
#230=ORIENTED_EDGE('',*,*,#208,.F.) ;
#258=ORIENTED_EDGE('',*,*,#244,.T.) ;
#259=ORIENTED_EDGE('',*,*,#225,.T.) ;
#260=ORIENTED_EDGE('',*,*,#251,.F.) ;
#261=ORIENTED_EDGE('',*,*,#256,.F.) ;
#275=ORIENTED_EDGE('',*,*,#251,.T.) ;
#276=ORIENTED_EDGE('',*,*,#203,.T.) ;
#277=ORIENTED_EDGE('',*,*,#244,.F.) ;
#278=ORIENTED_EDGE('',*,*,#273,.F.) ;
#306=ORIENTED_EDGE('',*,*,#292,.T.) ;
#307=ORIENTED_EDGE('',*,*,#182,.F.) ;
#308=ORIENTED_EDGE('',*,*,#299,.F.) ;
#309=ORIENTED_EDGE('',*,*,#304,.T.) ;
#318=ORIENTED_EDGE('',*,*,#299,.T.) ;
#319=ORIENTED_EDGE('',*,*,#160,.F.) ;
#320=ORIENTED_EDGE('',*,*,#292,.F.) ;
#321=ORIENTED_EDGE('',*,*,#316,.T.) ;
#344=ORIENTED_EDGE('',*,*,#337,.F.) ;
#345=ORIENTED_EDGE('',*,*,#342,.F.) ;
#348=ORIENTED_EDGE('',*,*,#256,.T.) ;
#349=ORIENTED_EDGE('',*,*,#273,.T.) ;
#368=ORIENTED_EDGE('',*,*,#361,.T.) ;
#369=ORIENTED_EDGE('',*,*,#342,.T.) ;
#370=ORIENTED_EDGE('',*,*,#366,.F.) ;
#371=ORIENTED_EDGE('',*,*,#304,.F.) ;
#380=ORIENTED_EDGE('',*,*,#366,.T.) ;
#381=ORIENTED_EDGE('',*,*,#337,.T.) ;
#382=ORIENTED_EDGE('',*,*,#361,.F.) ;
#383=ORIENTED_EDGE('',*,*,#316,.F.) ;
#140=FACE_BOUND('',#137,.T.) ;
#350=FACE_BOUND('',#347,.T.) ;
#51=CLOSED_SHELL('Closed Shell',(#91,#113,#141,#172,#189,#220,#232,#263,#280,#311,#323,#351,#373,#385)) ;
#59=VECTOR('Line Direction',#58,1.) ;
#75=VECTOR('Line Direction',#74,1.) ;
#149=VECTOR('Line Direction',#148,1.) ;
#163=VECTOR('Line Direction',#162,1.) ;
#206=VECTOR('Line Direction',#205,1.) ;
#211=VECTOR('Line Direction',#210,1.) ;
#240=VECTOR('Line Direction',#239,1.) ;
#247=VECTOR('Line Direction',#246,1.) ;
#288=VECTOR('Line Direction',#287,1.) ;
#295=VECTOR('Line Direction',#294,1.) ;
#359=VECTOR('Line Direction',#358,1.) ;
#364=VECTOR('Line Direction',#363,1.) ;
#387=ADVANCED_BREP_SHAPE_REPRESENTATION('NONE',(#386),#46) ;
#49=SHAPE_REPRESENTATION(' ',(#48),#46) ;
#91=ADVANCED_FACE('Corps principal',(#90),#56,.F.) ;
#113=ADVANCED_FACE('Corps principal',(#112),#96,.F.) ;
#141=ADVANCED_FACE('Corps principal',(#136,#140),#118,.T.) ;
#172=ADVANCED_FACE('Corps principal',(#171),#146,.T.) ;
#189=ADVANCED_FACE('Corps principal',(#188),#177,.T.) ;
#220=ADVANCED_FACE('Corps principal',(#219),#194,.F.) ;
#232=ADVANCED_FACE('Corps principal',(#231),#194,.F.) ;
#263=ADVANCED_FACE('Corps principal',(#262),#237,.F.) ;
#280=ADVANCED_FACE('Corps principal',(#279),#268,.F.) ;
#311=ADVANCED_FACE('Corps principal',(#310),#285,.T.) ;
#323=ADVANCED_FACE('Corps principal',(#322),#285,.T.) ;
#351=ADVANCED_FACE('Corps principal',(#346,#350),#328,.F.) ;
#373=ADVANCED_FACE('Corps principal',(#372),#356,.T.) ;
#385=ADVANCED_FACE('Corps principal',(#384),#378,.T.) ;
#4=APPLICATION_PROTOCOL_DEFINITION('international standard','config_control_design',1994,#1) ;
#32=APPROVAL_DATE_TIME(#13,#21) ;
#386=MANIFOLD_SOLID_BREP('Corps principal',#51) ;
#11=CALENDAR_DATE(2021,16,5) ;
#30=CC_DESIGN_APPROVAL(#21,(#16,#6,#14)) ;
#18=CC_DESIGN_DATE_AND_TIME_ASSIGNMENT(#13,#17,(#16)) ;
#29=CC_DESIGN_DATE_AND_TIME_ASSIGNMENT(#13,#28,(#14)) ;
#17=DATE_TIME_ROLE('classification_date') ;
#28=DATE_TIME_ROLE('creation_date') ;
#27=CC_DESIGN_PERSON_AND_ORGANIZATION_ASSIGNMENT(#25,#26,(#16)) ;
#33=CC_DESIGN_PERSON_AND_ORGANIZATION_ASSIGNMENT(#25,#34,(#6)) ;
#35=CC_DESIGN_PERSON_AND_ORGANIZATION_ASSIGNMENT(#25,#36,(#6,#14)) ;
#37=CC_DESIGN_PERSON_AND_ORGANIZATION_ASSIGNMENT(#25,#38,(#5)) ;
#26=PERSON_AND_ORGANIZATION_ROLE('classification_officer') ;
#34=PERSON_AND_ORGANIZATION_ROLE('design_supplier') ;
#36=PERSON_AND_ORGANIZATION_ROLE('creator') ;
#38=PERSON_AND_ORGANIZATION_ROLE('design_owner') ;
#39=CC_DESIGN_SECURITY_CLASSIFICATION(#16,(#6)) ;
#69=CIRCLE('generated circle',#68,9.5) ;
#83=CIRCLE('generated circle',#82,9.) ;
#100=CIRCLE('generated circle',#99,9.5) ;
#105=CIRCLE('generated circle',#104,9.) ;
#122=CIRCLE('generated circle',#121,12.) ;
#131=CIRCLE('generated circle',#130,12.) ;
#157=CIRCLE('generated circle',#156,12.5) ;
#181=CIRCLE('generated circle',#180,12.5) ;
#198=CIRCLE('generated circle',#197,9.) ;
#224=CIRCLE('generated circle',#223,9.) ;
#255=CIRCLE('generated circle',#254,9.5) ;
#272=CIRCLE('generated circle',#271,9.5) ;
#303=CIRCLE('generated circle',#302,12.5) ;
#315=CIRCLE('generated circle',#314,12.5) ;
#332=CIRCLE('generated circle',#331,12.) ;
#341=CIRCLE('generated circle',#340,12.) ;
#56=CONICAL_SURFACE('Cone',#55,0.,0.785398163397) ;
#96=CONICAL_SURFACE('Cone',#95,0.,0.785398163397) ;
#146=CONICAL_SURFACE('Cone',#145,0.,0.785398163397) ;
#177=CONICAL_SURFACE('Cone',#176,0.,0.785398163397) ;
#237=CONICAL_SURFACE('Cone',#236,0.,0.785398163397) ;
#268=CONICAL_SURFACE('Cone',#267,0.,0.785398163397) ;
#356=CONICAL_SURFACE('Cone',#355,0.,0.785398163397) ;
#378=CONICAL_SURFACE('Cone',#377,0.,0.785398163397) ;
#388=SHAPE_REPRESENTATION_RELATIONSHIP(' ',' ',#49,#387) ;
#194=CYLINDRICAL_SURFACE('generated cylinder',#193,9.) ;
#285=CYLINDRICAL_SURFACE('generated cylinder',#284,12.5) ;
#3=DESIGN_CONTEXT(' ',#1,'design') ;
#65=EDGE_CURVE('',#62,#64,#60,.T.) ;
#72=EDGE_CURVE('',#64,#71,#69,.T.) ;
#79=EDGE_CURVE('',#78,#71,#76,.T.) ;
#84=EDGE_CURVE('',#62,#78,#83,.T.) ;
#101=EDGE_CURVE('',#71,#64,#100,.T.) ;
#106=EDGE_CURVE('',#78,#62,#105,.T.) ;
#127=EDGE_CURVE('',#124,#126,#122,.T.) ;
#132=EDGE_CURVE('',#126,#124,#131,.T.) ;
#153=EDGE_CURVE('',#124,#152,#150,.T.) ;
#160=EDGE_CURVE('',#152,#159,#157,.T.) ;
#165=EDGE_CURVE('',#126,#159,#164,.T.) ;
#182=EDGE_CURVE('',#159,#152,#181,.T.) ;
#203=EDGE_CURVE('',#200,#202,#198,.T.) ;
#208=EDGE_CURVE('',#200,#62,#207,.T.) ;
#213=EDGE_CURVE('',#202,#78,#212,.T.) ;
#225=EDGE_CURVE('',#202,#200,#224,.T.) ;
#244=EDGE_CURVE('',#243,#202,#241,.F.) ;
#251=EDGE_CURVE('',#250,#200,#248,.F.) ;
#256=EDGE_CURVE('',#243,#250,#255,.T.) ;
#273=EDGE_CURVE('',#250,#243,#272,.T.) ;
#292=EDGE_CURVE('',#291,#152,#289,.T.) ;
#299=EDGE_CURVE('',#298,#159,#296,.T.) ;
#304=EDGE_CURVE('',#298,#291,#303,.T.) ;
#316=EDGE_CURVE('',#291,#298,#315,.T.) ;
#337=EDGE_CURVE('',#334,#336,#332,.T.) ;
#342=EDGE_CURVE('',#336,#334,#341,.T.) ;
#361=EDGE_CURVE('',#298,#336,#360,.F.) ;
#366=EDGE_CURVE('',#291,#334,#365,.F.) ;
#85=EDGE_LOOP('',(#86,#87,#88,#89)) ;
#107=EDGE_LOOP('',(#108,#109,#110,#111)) ;
#133=EDGE_LOOP('',(#134,#135)) ;
#137=EDGE_LOOP('',(#138,#139)) ;
#166=EDGE_LOOP('',(#167,#168,#169,#170)) ;
#183=EDGE_LOOP('',(#184,#185,#186,#187)) ;
#214=EDGE_LOOP('',(#215,#216,#217,#218)) ;
#226=EDGE_LOOP('',(#227,#228,#229,#230)) ;
#257=EDGE_LOOP('',(#258,#259,#260,#261)) ;
#274=EDGE_LOOP('',(#275,#276,#277,#278)) ;
#305=EDGE_LOOP('',(#306,#307,#308,#309)) ;
#317=EDGE_LOOP('',(#318,#319,#320,#321)) ;
#343=EDGE_LOOP('',(#344,#345)) ;
#347=EDGE_LOOP('',(#348,#349)) ;
#367=EDGE_LOOP('',(#368,#369,#370,#371)) ;
#379=EDGE_LOOP('',(#380,#381,#382,#383)) ;
#90=FACE_OUTER_BOUND('',#85,.T.) ;
#112=FACE_OUTER_BOUND('',#107,.T.) ;
#136=FACE_OUTER_BOUND('',#133,.T.) ;
#171=FACE_OUTER_BOUND('',#166,.T.) ;
#188=FACE_OUTER_BOUND('',#183,.T.) ;
#219=FACE_OUTER_BOUND('',#214,.T.) ;
#231=FACE_OUTER_BOUND('',#226,.T.) ;
#262=FACE_OUTER_BOUND('',#257,.T.) ;
#279=FACE_OUTER_BOUND('',#274,.T.) ;
#310=FACE_OUTER_BOUND('',#305,.T.) ;
#322=FACE_OUTER_BOUND('',#317,.T.) ;
#346=FACE_OUTER_BOUND('',#343,.T.) ;
#372=FACE_OUTER_BOUND('',#367,.T.) ;
#384=FACE_OUTER_BOUND('',#379,.T.) ;
#45=UNCERTAINTY_MEASURE_WITH_UNIT(LENGTH_MEASURE(0.005),#41,'distance_accuracy_value','CONFUSED CURVE UNCERTAINTY') ;
#60=LINE('Line',#57,#59) ;
#76=LINE('Line',#73,#75) ;
#150=LINE('Line',#147,#149) ;
#164=LINE('Line',#161,#163) ;
#207=LINE('Line',#204,#206) ;
#212=LINE('Line',#209,#211) ;
#241=LINE('Line',#238,#240) ;
#248=LINE('Line',#245,#247) ;
#289=LINE('Line',#286,#288) ;
#296=LINE('Line',#293,#295) ;
#360=LINE('Line',#357,#359) ;
#365=LINE('Line',#362,#364) ;
#2=MECHANICAL_CONTEXT(' ',#1,'mechanical') ;
#24=PERSONAL_ADDRESS(' ',' ',' ',' ',' ',' ',' ',' ',' ',' ',' ',' ',(#22),' ') ;
#118=PLANE('',#117) ;
#328=PLANE('',#327) ;
#43=PLANE_ANGLE_MEASURE_WITH_UNIT(PLANE_ANGLE_MEASURE(0.0174532925199),#42) ;
#7=PRODUCT_CATEGORY('part',$) ;
#9=PRODUCT_CATEGORY_RELATIONSHIP(' ',' ',#7,#8) ;
#6=PRODUCT_DEFINITION_FORMATION_WITH_SPECIFIED_SOURCE('',' ',#5,.NOT_KNOWN.) ;
#8=PRODUCT_RELATED_PRODUCT_CATEGORY('detail',$,(#5)) ;
#50=SHAPE_DEFINITION_REPRESENTATION(#40,#49) ;
#62=VERTEX_POINT('',#61) ;
#64=VERTEX_POINT('',#63) ;
#71=VERTEX_POINT('',#70) ;
#78=VERTEX_POINT('',#77) ;
#124=VERTEX_POINT('',#123) ;
#126=VERTEX_POINT('',#125) ;
#152=VERTEX_POINT('',#151) ;
#159=VERTEX_POINT('',#158) ;
#200=VERTEX_POINT('',#199) ;
#202=VERTEX_POINT('',#201) ;
#243=VERTEX_POINT('',#242) ;
#250=VERTEX_POINT('',#249) ;
#291=VERTEX_POINT('',#290) ;
#298=VERTEX_POINT('',#297) ;
#334=VERTEX_POINT('',#333) ;
#336=VERTEX_POINT('',#335) ;
#41=(LENGTH_UNIT()NAMED_UNIT(*)SI_UNIT(.MILLI.,.METRE.)) ;
#42=(NAMED_UNIT(*)PLANE_ANGLE_UNIT()SI_UNIT($,.RADIAN.)) ;
#44=(NAMED_UNIT(*)SI_UNIT($,.STERADIAN.)SOLID_ANGLE_UNIT()) ;
#46=(GEOMETRIC_REPRESENTATION_CONTEXT(3)GLOBAL_UNCERTAINTY_ASSIGNED_CONTEXT((#45))GLOBAL_UNIT_ASSIGNED_CONTEXT((#41,#42,#44))REPRESENTATION_CONTEXT(' ',' ')) ;
ENDSEC;
END-ISO-10303-21;
