ISO-10303-21;
HEADER;
/* Generated by software containing ST-Developer
 * from STEP Tools, Inc. (www.steptools.com) 
 */

FILE_DESCRIPTION(
/* description */ (''),
/* implementation_level */ '2;1');

FILE_NAME(
/* name */ 
'C:\\Users\\hcapa\\Desktop\\CEN GENESIS\\3d kit conversion\\petite pla
que moteur.stp',
/* time_stamp */ '2021-05-21T08:19:02+02:00',
/* author */ ('HCAPA'),
/* organization */ (''),
/* preprocessor_version */ 'ST-DEVELOPER v18.1',
/* originating_system */ 'Autodesk Inventor 2021',
/* authorisation */ '');

FILE_SCHEMA (('AUTOMOTIVE_DESIGN { 1 0 10303 214 3 1 1 }'));
ENDSEC;

DATA;
#10=MECHANICAL_DESIGN_GEOMETRIC_PRESENTATION_REPRESENTATION('',(#13),#621);
#11=SHAPE_REPRESENTATION_RELATIONSHIP('SRR','None',#628,#12);
#12=ADVANCED_BREP_SHAPE_REPRESENTATION('',(#14),#620);
#13=STYLED_ITEM('',(#637),#14);
#14=MANIFOLD_SOLID_BREP('Solide1',#363);
#15=FACE_BOUND('',#71,.T.);
#16=FACE_BOUND('',#73,.T.);
#17=FACE_BOUND('',#74,.T.);
#18=FACE_BOUND('',#78,.T.);
#19=FACE_BOUND('',#82,.T.);
#20=FACE_BOUND('',#83,.T.);
#21=FACE_BOUND('',#85,.T.);
#22=PLANE('',#405);
#23=PLANE('',#406);
#24=PLANE('',#407);
#25=PLANE('',#408);
#26=PLANE('',#409);
#27=PLANE('',#410);
#28=PLANE('',#411);
#29=PLANE('',#412);
#30=PLANE('',#413);
#31=PLANE('',#414);
#32=PLANE('',#415);
#33=CYLINDRICAL_SURFACE('',#385,1.621);
#34=CYLINDRICAL_SURFACE('',#389,1.621);
#35=CYLINDRICAL_SURFACE('',#393,1.621);
#36=CYLINDRICAL_SURFACE('',#397,1.621);
#37=CYLINDRICAL_SURFACE('',#399,6.5);
#38=CYLINDRICAL_SURFACE('',#402,7.5);
#39=FACE_OUTER_BOUND('',#60,.T.);
#40=FACE_OUTER_BOUND('',#61,.T.);
#41=FACE_OUTER_BOUND('',#62,.T.);
#42=FACE_OUTER_BOUND('',#63,.T.);
#43=FACE_OUTER_BOUND('',#64,.T.);
#44=FACE_OUTER_BOUND('',#65,.T.);
#45=FACE_OUTER_BOUND('',#66,.T.);
#46=FACE_OUTER_BOUND('',#67,.T.);
#47=FACE_OUTER_BOUND('',#68,.T.);
#48=FACE_OUTER_BOUND('',#69,.T.);
#49=FACE_OUTER_BOUND('',#70,.T.);
#50=FACE_OUTER_BOUND('',#72,.T.);
#51=FACE_OUTER_BOUND('',#75,.T.);
#52=FACE_OUTER_BOUND('',#76,.T.);
#53=FACE_OUTER_BOUND('',#77,.T.);
#54=FACE_OUTER_BOUND('',#79,.T.);
#55=FACE_OUTER_BOUND('',#80,.T.);
#56=FACE_OUTER_BOUND('',#81,.T.);
#57=FACE_OUTER_BOUND('',#84,.T.);
#58=FACE_OUTER_BOUND('',#86,.T.);
#59=FACE_OUTER_BOUND('',#87,.T.);
#60=EDGE_LOOP('',(#246,#247,#248));
#61=EDGE_LOOP('',(#249,#250,#251,#252));
#62=EDGE_LOOP('',(#253,#254,#255));
#63=EDGE_LOOP('',(#256,#257,#258,#259));
#64=EDGE_LOOP('',(#260,#261,#262));
#65=EDGE_LOOP('',(#263,#264,#265,#266));
#66=EDGE_LOOP('',(#267,#268,#269));
#67=EDGE_LOOP('',(#270,#271,#272,#273));
#68=EDGE_LOOP('',(#274,#275,#276,#277));
#69=EDGE_LOOP('',(#278,#279,#280,#281));
#70=EDGE_LOOP('',(#282));
#71=EDGE_LOOP('',(#283));
#72=EDGE_LOOP('',(#284,#285,#286,#287));
#73=EDGE_LOOP('',(#288));
#74=EDGE_LOOP('',(#289));
#75=EDGE_LOOP('',(#290,#291,#292,#293));
#76=EDGE_LOOP('',(#294,#295,#296,#297));
#77=EDGE_LOOP('',(#298,#299,#300,#301));
#78=EDGE_LOOP('',(#302));
#79=EDGE_LOOP('',(#303,#304,#305,#306));
#80=EDGE_LOOP('',(#307,#308,#309,#310));
#81=EDGE_LOOP('',(#311,#312,#313,#314));
#82=EDGE_LOOP('',(#315));
#83=EDGE_LOOP('',(#316));
#84=EDGE_LOOP('',(#317,#318,#319,#320));
#85=EDGE_LOOP('',(#321));
#86=EDGE_LOOP('',(#322,#323,#324,#325,#326,#327,#328,#329));
#87=EDGE_LOOP('',(#330,#331,#332,#333,#334,#335,#336,#337));
#88=LINE('',#523,#122);
#89=LINE('',#527,#123);
#90=LINE('',#532,#124);
#91=LINE('',#536,#125);
#92=LINE('',#541,#126);
#93=LINE('',#545,#127);
#94=LINE('',#550,#128);
#95=LINE('',#554,#129);
#96=LINE('',#559,#130);
#97=LINE('',#565,#131);
#98=LINE('',#571,#132);
#99=LINE('',#573,#133);
#100=LINE('',#575,#134);
#101=LINE('',#576,#135);
#102=LINE('',#579,#136);
#103=LINE('',#581,#137);
#104=LINE('',#582,#138);
#105=LINE('',#585,#139);
#106=LINE('',#587,#140);
#107=LINE('',#588,#141);
#108=LINE('',#591,#142);
#109=LINE('',#593,#143);
#110=LINE('',#594,#144);
#111=LINE('',#597,#145);
#112=LINE('',#599,#146);
#113=LINE('',#600,#147);
#114=LINE('',#603,#148);
#115=LINE('',#605,#149);
#116=LINE('',#606,#150);
#117=LINE('',#609,#151);
#118=LINE('',#611,#152);
#119=LINE('',#612,#153);
#120=LINE('',#614,#154);
#121=LINE('',#615,#155);
#122=VECTOR('',#422,0.8105);
#123=VECTOR('',#427,1.621);
#124=VECTOR('',#432,0.8105);
#125=VECTOR('',#437,1.621);
#126=VECTOR('',#442,0.8105);
#127=VECTOR('',#447,1.621);
#128=VECTOR('',#452,0.8105);
#129=VECTOR('',#457,1.621);
#130=VECTOR('',#462,6.5);
#131=VECTOR('',#469,7.5);
#132=VECTOR('',#476,10.);
#133=VECTOR('',#477,10.);
#134=VECTOR('',#478,10.);
#135=VECTOR('',#479,10.);
#136=VECTOR('',#482,10.);
#137=VECTOR('',#483,10.);
#138=VECTOR('',#484,10.);
#139=VECTOR('',#487,10.);
#140=VECTOR('',#488,10.);
#141=VECTOR('',#489,10.);
#142=VECTOR('',#492,10.);
#143=VECTOR('',#493,10.);
#144=VECTOR('',#494,10.);
#145=VECTOR('',#497,10.);
#146=VECTOR('',#498,10.);
#147=VECTOR('',#499,10.);
#148=VECTOR('',#502,10.);
#149=VECTOR('',#503,10.);
#150=VECTOR('',#504,10.);
#151=VECTOR('',#507,10.);
#152=VECTOR('',#508,10.);
#153=VECTOR('',#509,10.);
#154=VECTOR('',#512,10.);
#155=VECTOR('',#513,10.);
#156=CIRCLE('',#384,1.621);
#157=CIRCLE('',#386,1.621);
#158=CIRCLE('',#388,1.621);
#159=CIRCLE('',#390,1.621);
#160=CIRCLE('',#392,1.621);
#161=CIRCLE('',#394,1.621);
#162=CIRCLE('',#396,1.621);
#163=CIRCLE('',#398,1.621);
#164=CIRCLE('',#400,6.5);
#165=CIRCLE('',#401,6.5);
#166=CIRCLE('',#403,7.5);
#167=CIRCLE('',#404,7.5);
#168=VERTEX_POINT('',#520);
#169=VERTEX_POINT('',#522);
#170=VERTEX_POINT('',#525);
#171=VERTEX_POINT('',#529);
#172=VERTEX_POINT('',#531);
#173=VERTEX_POINT('',#534);
#174=VERTEX_POINT('',#538);
#175=VERTEX_POINT('',#540);
#176=VERTEX_POINT('',#543);
#177=VERTEX_POINT('',#547);
#178=VERTEX_POINT('',#549);
#179=VERTEX_POINT('',#552);
#180=VERTEX_POINT('',#556);
#181=VERTEX_POINT('',#558);
#182=VERTEX_POINT('',#562);
#183=VERTEX_POINT('',#564);
#184=VERTEX_POINT('',#569);
#185=VERTEX_POINT('',#570);
#186=VERTEX_POINT('',#572);
#187=VERTEX_POINT('',#574);
#188=VERTEX_POINT('',#578);
#189=VERTEX_POINT('',#580);
#190=VERTEX_POINT('',#584);
#191=VERTEX_POINT('',#586);
#192=VERTEX_POINT('',#590);
#193=VERTEX_POINT('',#592);
#194=VERTEX_POINT('',#596);
#195=VERTEX_POINT('',#598);
#196=VERTEX_POINT('',#602);
#197=VERTEX_POINT('',#604);
#198=VERTEX_POINT('',#608);
#199=VERTEX_POINT('',#610);
#200=EDGE_CURVE('',#168,#168,#156,.T.);
#201=EDGE_CURVE('',#168,#169,#88,.T.);
#202=EDGE_CURVE('',#170,#170,#157,.T.);
#203=EDGE_CURVE('',#170,#168,#89,.T.);
#204=EDGE_CURVE('',#171,#171,#158,.T.);
#205=EDGE_CURVE('',#171,#172,#90,.T.);
#206=EDGE_CURVE('',#173,#173,#159,.T.);
#207=EDGE_CURVE('',#173,#171,#91,.T.);
#208=EDGE_CURVE('',#174,#174,#160,.T.);
#209=EDGE_CURVE('',#174,#175,#92,.T.);
#210=EDGE_CURVE('',#176,#176,#161,.T.);
#211=EDGE_CURVE('',#176,#174,#93,.T.);
#212=EDGE_CURVE('',#177,#177,#162,.T.);
#213=EDGE_CURVE('',#177,#178,#94,.T.);
#214=EDGE_CURVE('',#179,#179,#163,.T.);
#215=EDGE_CURVE('',#179,#177,#95,.T.);
#216=EDGE_CURVE('',#180,#180,#164,.T.);
#217=EDGE_CURVE('',#180,#181,#96,.T.);
#218=EDGE_CURVE('',#181,#181,#165,.T.);
#219=EDGE_CURVE('',#182,#182,#166,.T.);
#220=EDGE_CURVE('',#182,#183,#97,.T.);
#221=EDGE_CURVE('',#183,#183,#167,.T.);
#222=EDGE_CURVE('',#184,#185,#98,.T.);
#223=EDGE_CURVE('',#185,#186,#99,.T.);
#224=EDGE_CURVE('',#187,#186,#100,.T.);
#225=EDGE_CURVE('',#184,#187,#101,.T.);
#226=EDGE_CURVE('',#188,#184,#102,.T.);
#227=EDGE_CURVE('',#189,#187,#103,.T.);
#228=EDGE_CURVE('',#188,#189,#104,.T.);
#229=EDGE_CURVE('',#190,#188,#105,.T.);
#230=EDGE_CURVE('',#191,#189,#106,.T.);
#231=EDGE_CURVE('',#190,#191,#107,.T.);
#232=EDGE_CURVE('',#192,#190,#108,.T.);
#233=EDGE_CURVE('',#193,#191,#109,.T.);
#234=EDGE_CURVE('',#192,#193,#110,.T.);
#235=EDGE_CURVE('',#194,#192,#111,.T.);
#236=EDGE_CURVE('',#195,#193,#112,.T.);
#237=EDGE_CURVE('',#194,#195,#113,.T.);
#238=EDGE_CURVE('',#196,#194,#114,.T.);
#239=EDGE_CURVE('',#197,#195,#115,.T.);
#240=EDGE_CURVE('',#196,#197,#116,.T.);
#241=EDGE_CURVE('',#198,#196,#117,.T.);
#242=EDGE_CURVE('',#199,#197,#118,.T.);
#243=EDGE_CURVE('',#198,#199,#119,.T.);
#244=EDGE_CURVE('',#185,#198,#120,.T.);
#245=EDGE_CURVE('',#186,#199,#121,.T.);
#246=ORIENTED_EDGE('',*,*,#200,.T.);
#247=ORIENTED_EDGE('',*,*,#201,.T.);
#248=ORIENTED_EDGE('',*,*,#201,.F.);
#249=ORIENTED_EDGE('',*,*,#202,.F.);
#250=ORIENTED_EDGE('',*,*,#203,.T.);
#251=ORIENTED_EDGE('',*,*,#200,.F.);
#252=ORIENTED_EDGE('',*,*,#203,.F.);
#253=ORIENTED_EDGE('',*,*,#204,.T.);
#254=ORIENTED_EDGE('',*,*,#205,.T.);
#255=ORIENTED_EDGE('',*,*,#205,.F.);
#256=ORIENTED_EDGE('',*,*,#206,.F.);
#257=ORIENTED_EDGE('',*,*,#207,.T.);
#258=ORIENTED_EDGE('',*,*,#204,.F.);
#259=ORIENTED_EDGE('',*,*,#207,.F.);
#260=ORIENTED_EDGE('',*,*,#208,.T.);
#261=ORIENTED_EDGE('',*,*,#209,.T.);
#262=ORIENTED_EDGE('',*,*,#209,.F.);
#263=ORIENTED_EDGE('',*,*,#210,.F.);
#264=ORIENTED_EDGE('',*,*,#211,.T.);
#265=ORIENTED_EDGE('',*,*,#208,.F.);
#266=ORIENTED_EDGE('',*,*,#211,.F.);
#267=ORIENTED_EDGE('',*,*,#212,.T.);
#268=ORIENTED_EDGE('',*,*,#213,.T.);
#269=ORIENTED_EDGE('',*,*,#213,.F.);
#270=ORIENTED_EDGE('',*,*,#214,.F.);
#271=ORIENTED_EDGE('',*,*,#215,.T.);
#272=ORIENTED_EDGE('',*,*,#212,.F.);
#273=ORIENTED_EDGE('',*,*,#215,.F.);
#274=ORIENTED_EDGE('',*,*,#216,.F.);
#275=ORIENTED_EDGE('',*,*,#217,.T.);
#276=ORIENTED_EDGE('',*,*,#218,.F.);
#277=ORIENTED_EDGE('',*,*,#217,.F.);
#278=ORIENTED_EDGE('',*,*,#219,.F.);
#279=ORIENTED_EDGE('',*,*,#220,.T.);
#280=ORIENTED_EDGE('',*,*,#221,.T.);
#281=ORIENTED_EDGE('',*,*,#220,.F.);
#282=ORIENTED_EDGE('',*,*,#221,.F.);
#283=ORIENTED_EDGE('',*,*,#216,.T.);
#284=ORIENTED_EDGE('',*,*,#222,.T.);
#285=ORIENTED_EDGE('',*,*,#223,.T.);
#286=ORIENTED_EDGE('',*,*,#224,.F.);
#287=ORIENTED_EDGE('',*,*,#225,.F.);
#288=ORIENTED_EDGE('',*,*,#202,.T.);
#289=ORIENTED_EDGE('',*,*,#206,.T.);
#290=ORIENTED_EDGE('',*,*,#226,.T.);
#291=ORIENTED_EDGE('',*,*,#225,.T.);
#292=ORIENTED_EDGE('',*,*,#227,.F.);
#293=ORIENTED_EDGE('',*,*,#228,.F.);
#294=ORIENTED_EDGE('',*,*,#229,.T.);
#295=ORIENTED_EDGE('',*,*,#228,.T.);
#296=ORIENTED_EDGE('',*,*,#230,.F.);
#297=ORIENTED_EDGE('',*,*,#231,.F.);
#298=ORIENTED_EDGE('',*,*,#232,.T.);
#299=ORIENTED_EDGE('',*,*,#231,.T.);
#300=ORIENTED_EDGE('',*,*,#233,.F.);
#301=ORIENTED_EDGE('',*,*,#234,.F.);
#302=ORIENTED_EDGE('',*,*,#219,.T.);
#303=ORIENTED_EDGE('',*,*,#235,.T.);
#304=ORIENTED_EDGE('',*,*,#234,.T.);
#305=ORIENTED_EDGE('',*,*,#236,.F.);
#306=ORIENTED_EDGE('',*,*,#237,.F.);
#307=ORIENTED_EDGE('',*,*,#238,.T.);
#308=ORIENTED_EDGE('',*,*,#237,.T.);
#309=ORIENTED_EDGE('',*,*,#239,.F.);
#310=ORIENTED_EDGE('',*,*,#240,.F.);
#311=ORIENTED_EDGE('',*,*,#241,.T.);
#312=ORIENTED_EDGE('',*,*,#240,.T.);
#313=ORIENTED_EDGE('',*,*,#242,.F.);
#314=ORIENTED_EDGE('',*,*,#243,.F.);
#315=ORIENTED_EDGE('',*,*,#210,.T.);
#316=ORIENTED_EDGE('',*,*,#214,.T.);
#317=ORIENTED_EDGE('',*,*,#244,.T.);
#318=ORIENTED_EDGE('',*,*,#243,.T.);
#319=ORIENTED_EDGE('',*,*,#245,.F.);
#320=ORIENTED_EDGE('',*,*,#223,.F.);
#321=ORIENTED_EDGE('',*,*,#218,.T.);
#322=ORIENTED_EDGE('',*,*,#245,.T.);
#323=ORIENTED_EDGE('',*,*,#242,.T.);
#324=ORIENTED_EDGE('',*,*,#239,.T.);
#325=ORIENTED_EDGE('',*,*,#236,.T.);
#326=ORIENTED_EDGE('',*,*,#233,.T.);
#327=ORIENTED_EDGE('',*,*,#230,.T.);
#328=ORIENTED_EDGE('',*,*,#227,.T.);
#329=ORIENTED_EDGE('',*,*,#224,.T.);
#330=ORIENTED_EDGE('',*,*,#244,.F.);
#331=ORIENTED_EDGE('',*,*,#222,.F.);
#332=ORIENTED_EDGE('',*,*,#226,.F.);
#333=ORIENTED_EDGE('',*,*,#229,.F.);
#334=ORIENTED_EDGE('',*,*,#232,.F.);
#335=ORIENTED_EDGE('',*,*,#235,.F.);
#336=ORIENTED_EDGE('',*,*,#238,.F.);
#337=ORIENTED_EDGE('',*,*,#241,.F.);
#338=CONICAL_SURFACE('',#383,0.8105,1.02974425867665);
#339=CONICAL_SURFACE('',#387,0.8105,1.02974425867665);
#340=CONICAL_SURFACE('',#391,0.8105,1.02974425867665);
#341=CONICAL_SURFACE('',#395,0.8105,1.02974425867665);
#342=ADVANCED_FACE('',(#39),#338,.F.);
#343=ADVANCED_FACE('',(#40),#33,.F.);
#344=ADVANCED_FACE('',(#41),#339,.F.);
#345=ADVANCED_FACE('',(#42),#34,.F.);
#346=ADVANCED_FACE('',(#43),#340,.F.);
#347=ADVANCED_FACE('',(#44),#35,.F.);
#348=ADVANCED_FACE('',(#45),#341,.F.);
#349=ADVANCED_FACE('',(#46),#36,.F.);
#350=ADVANCED_FACE('',(#47),#37,.F.);
#351=ADVANCED_FACE('',(#48),#38,.F.);
#352=ADVANCED_FACE('',(#49,#15),#22,.T.);
#353=ADVANCED_FACE('',(#50,#16,#17),#23,.T.);
#354=ADVANCED_FACE('',(#51),#24,.T.);
#355=ADVANCED_FACE('',(#52),#25,.T.);
#356=ADVANCED_FACE('',(#53,#18),#26,.T.);
#357=ADVANCED_FACE('',(#54),#27,.T.);
#358=ADVANCED_FACE('',(#55),#28,.T.);
#359=ADVANCED_FACE('',(#56,#19,#20),#29,.T.);
#360=ADVANCED_FACE('',(#57,#21),#30,.T.);
#361=ADVANCED_FACE('',(#58),#31,.T.);
#362=ADVANCED_FACE('',(#59),#32,.F.);
#363=CLOSED_SHELL('',(#342,#343,#344,#345,#346,#347,#348,#349,#350,#351,
#352,#353,#354,#355,#356,#357,#358,#359,#360,#361,#362));
#364=DERIVED_UNIT_ELEMENT(#366,1.);
#365=DERIVED_UNIT_ELEMENT(#623,-3.);
#366=(
MASS_UNIT()
NAMED_UNIT(*)
SI_UNIT($,.GRAM.)
);
#367=DERIVED_UNIT((#364,#365));
#368=MEASURE_REPRESENTATION_ITEM('density measure',
POSITIVE_RATIO_MEASURE(2.7),#367);
#369=PROPERTY_DEFINITION_REPRESENTATION(#374,#371);
#370=PROPERTY_DEFINITION_REPRESENTATION(#375,#372);
#371=REPRESENTATION('material name',(#373),#620);
#372=REPRESENTATION('density',(#368),#620);
#373=DESCRIPTIVE_REPRESENTATION_ITEM('Aluminium 6061','Aluminium 6061');
#374=PROPERTY_DEFINITION('material property','material name',#630);
#375=PROPERTY_DEFINITION('material property','density of part',#630);
#376=DATE_TIME_ROLE('creation_date');
#377=APPLIED_DATE_AND_TIME_ASSIGNMENT(#378,#376,(#630));
#378=DATE_AND_TIME(#379,#380);
#379=CALENDAR_DATE(2021,21,4);
#380=LOCAL_TIME(0,0,0.,#381);
#381=COORDINATED_UNIVERSAL_TIME_OFFSET(0,0,.BEHIND.);
#382=AXIS2_PLACEMENT_3D('placement',#518,#416,#417);
#383=AXIS2_PLACEMENT_3D('',#519,#418,#419);
#384=AXIS2_PLACEMENT_3D('',#521,#420,#421);
#385=AXIS2_PLACEMENT_3D('',#524,#423,#424);
#386=AXIS2_PLACEMENT_3D('',#526,#425,#426);
#387=AXIS2_PLACEMENT_3D('',#528,#428,#429);
#388=AXIS2_PLACEMENT_3D('',#530,#430,#431);
#389=AXIS2_PLACEMENT_3D('',#533,#433,#434);
#390=AXIS2_PLACEMENT_3D('',#535,#435,#436);
#391=AXIS2_PLACEMENT_3D('',#537,#438,#439);
#392=AXIS2_PLACEMENT_3D('',#539,#440,#441);
#393=AXIS2_PLACEMENT_3D('',#542,#443,#444);
#394=AXIS2_PLACEMENT_3D('',#544,#445,#446);
#395=AXIS2_PLACEMENT_3D('',#546,#448,#449);
#396=AXIS2_PLACEMENT_3D('',#548,#450,#451);
#397=AXIS2_PLACEMENT_3D('',#551,#453,#454);
#398=AXIS2_PLACEMENT_3D('',#553,#455,#456);
#399=AXIS2_PLACEMENT_3D('',#555,#458,#459);
#400=AXIS2_PLACEMENT_3D('',#557,#460,#461);
#401=AXIS2_PLACEMENT_3D('',#560,#463,#464);
#402=AXIS2_PLACEMENT_3D('',#561,#465,#466);
#403=AXIS2_PLACEMENT_3D('',#563,#467,#468);
#404=AXIS2_PLACEMENT_3D('',#566,#470,#471);
#405=AXIS2_PLACEMENT_3D('',#567,#472,#473);
#406=AXIS2_PLACEMENT_3D('',#568,#474,#475);
#407=AXIS2_PLACEMENT_3D('',#577,#480,#481);
#408=AXIS2_PLACEMENT_3D('',#583,#485,#486);
#409=AXIS2_PLACEMENT_3D('',#589,#490,#491);
#410=AXIS2_PLACEMENT_3D('',#595,#495,#496);
#411=AXIS2_PLACEMENT_3D('',#601,#500,#501);
#412=AXIS2_PLACEMENT_3D('',#607,#505,#506);
#413=AXIS2_PLACEMENT_3D('',#613,#510,#511);
#414=AXIS2_PLACEMENT_3D('',#616,#514,#515);
#415=AXIS2_PLACEMENT_3D('',#617,#516,#517);
#416=DIRECTION('axis',(0.,0.,1.));
#417=DIRECTION('refdir',(1.,0.,0.));
#418=DIRECTION('center_axis',(1.,0.,0.));
#419=DIRECTION('ref_axis',(0.,0.,-1.));
#420=DIRECTION('center_axis',(1.,0.,0.));
#421=DIRECTION('ref_axis',(0.,0.,-1.));
#422=DIRECTION('',(-0.515038074910054,1.04972719113862E-16,-0.857167300702112));
#423=DIRECTION('center_axis',(1.,0.,0.));
#424=DIRECTION('ref_axis',(0.,0.,-1.));
#425=DIRECTION('center_axis',(-1.,0.,0.));
#426=DIRECTION('ref_axis',(0.,0.,-1.));
#427=DIRECTION('',(-1.,0.,0.));
#428=DIRECTION('center_axis',(1.,0.,0.));
#429=DIRECTION('ref_axis',(0.,0.,-1.));
#430=DIRECTION('center_axis',(1.,0.,0.));
#431=DIRECTION('ref_axis',(0.,0.,-1.));
#432=DIRECTION('',(-0.515038074910054,1.04972719113862E-16,-0.857167300702112));
#433=DIRECTION('center_axis',(1.,0.,0.));
#434=DIRECTION('ref_axis',(0.,0.,-1.));
#435=DIRECTION('center_axis',(-1.,0.,0.));
#436=DIRECTION('ref_axis',(0.,0.,-1.));
#437=DIRECTION('',(-1.,0.,0.));
#438=DIRECTION('center_axis',(-1.,0.,0.));
#439=DIRECTION('ref_axis',(0.,0.,1.));
#440=DIRECTION('center_axis',(-1.,0.,0.));
#441=DIRECTION('ref_axis',(0.,0.,1.));
#442=DIRECTION('',(0.515038074910054,1.04972719113862E-16,0.857167300702112));
#443=DIRECTION('center_axis',(-1.,0.,0.));
#444=DIRECTION('ref_axis',(0.,0.,1.));
#445=DIRECTION('center_axis',(1.,0.,0.));
#446=DIRECTION('ref_axis',(0.,0.,1.));
#447=DIRECTION('',(1.,0.,0.));
#448=DIRECTION('center_axis',(-1.,0.,0.));
#449=DIRECTION('ref_axis',(0.,0.,1.));
#450=DIRECTION('center_axis',(-1.,0.,0.));
#451=DIRECTION('ref_axis',(0.,0.,1.));
#452=DIRECTION('',(0.515038074910054,1.04972719113862E-16,0.857167300702112));
#453=DIRECTION('center_axis',(-1.,0.,0.));
#454=DIRECTION('ref_axis',(0.,0.,1.));
#455=DIRECTION('center_axis',(1.,0.,0.));
#456=DIRECTION('ref_axis',(0.,0.,1.));
#457=DIRECTION('',(1.,0.,0.));
#458=DIRECTION('center_axis',(0.,0.,-1.));
#459=DIRECTION('ref_axis',(1.,0.,0.));
#460=DIRECTION('center_axis',(-2.4980018054066E-16,0.,-1.));
#461=DIRECTION('ref_axis',(1.,0.,0.));
#462=DIRECTION('',(0.,0.,-1.));
#463=DIRECTION('center_axis',(1.22464679914735E-16,0.,1.));
#464=DIRECTION('ref_axis',(1.,0.,0.));
#465=DIRECTION('center_axis',(0.,0.,-1.));
#466=DIRECTION('ref_axis',(1.,0.,0.));
#467=DIRECTION('center_axis',(-2.4980018054066E-16,0.,-1.));
#468=DIRECTION('ref_axis',(1.,0.,0.));
#469=DIRECTION('',(0.,0.,-1.));
#470=DIRECTION('center_axis',(-2.4980018054066E-16,0.,-1.));
#471=DIRECTION('ref_axis',(1.,0.,-2.4980018054066E-16));
#472=DIRECTION('center_axis',(2.4980018054066E-16,0.,1.));
#473=DIRECTION('ref_axis',(1.,0.,-2.4980018054066E-16));
#474=DIRECTION('center_axis',(1.,0.,0.));
#475=DIRECTION('ref_axis',(0.,0.,-1.));
#476=DIRECTION('',(0.,0.,-1.));
#477=DIRECTION('',(0.,1.,0.));
#478=DIRECTION('',(0.,0.,-1.));
#479=DIRECTION('',(0.,1.,0.));
#480=DIRECTION('center_axis',(2.22044604925031E-16,0.,1.));
#481=DIRECTION('ref_axis',(1.,0.,-2.22044604925031E-16));
#482=DIRECTION('',(1.,0.,-2.22044604925031E-16));
#483=DIRECTION('',(1.,0.,-2.22044604925031E-16));
#484=DIRECTION('',(0.,1.,0.));
#485=DIRECTION('center_axis',(-1.,0.,0.));
#486=DIRECTION('ref_axis',(0.,0.,1.));
#487=DIRECTION('',(0.,0.,1.));
#488=DIRECTION('',(0.,0.,1.));
#489=DIRECTION('',(0.,1.,0.));
#490=DIRECTION('center_axis',(2.4980018054066E-16,0.,1.));
#491=DIRECTION('ref_axis',(1.,0.,-2.4980018054066E-16));
#492=DIRECTION('',(1.,0.,-2.4980018054066E-16));
#493=DIRECTION('',(1.,0.,-2.4980018054066E-16));
#494=DIRECTION('',(0.,1.,0.));
#495=DIRECTION('center_axis',(1.,0.,0.));
#496=DIRECTION('ref_axis',(0.,0.,-1.));
#497=DIRECTION('',(0.,0.,-1.));
#498=DIRECTION('',(0.,0.,-1.));
#499=DIRECTION('',(0.,1.,0.));
#500=DIRECTION('center_axis',(2.22044604925031E-16,0.,1.));
#501=DIRECTION('ref_axis',(1.,0.,-2.22044604925031E-16));
#502=DIRECTION('',(1.,0.,-2.22044604925031E-16));
#503=DIRECTION('',(1.,0.,-2.22044604925031E-16));
#504=DIRECTION('',(0.,1.,0.));
#505=DIRECTION('center_axis',(-1.,0.,0.));
#506=DIRECTION('ref_axis',(0.,0.,1.));
#507=DIRECTION('',(0.,0.,1.));
#508=DIRECTION('',(0.,0.,1.));
#509=DIRECTION('',(0.,1.,0.));
#510=DIRECTION('center_axis',(-1.22464679914735E-16,0.,-1.));
#511=DIRECTION('ref_axis',(-1.,0.,1.22464679914735E-16));
#512=DIRECTION('',(-1.,0.,1.22464679914735E-16));
#513=DIRECTION('',(-1.,0.,1.22464679914735E-16));
#514=DIRECTION('center_axis',(0.,1.,0.));
#515=DIRECTION('ref_axis',(0.,0.,1.));
#516=DIRECTION('center_axis',(0.,1.,0.));
#517=DIRECTION('ref_axis',(0.,0.,1.));
#518=CARTESIAN_POINT('',(0.,0.,0.));
#519=CARTESIAN_POINT('Origin',(87.7130024682782,35.,5.));
#520=CARTESIAN_POINT('',(88.2,35.,6.62100000000001));
#521=CARTESIAN_POINT('Origin',(88.2,35.,5.));
#522=CARTESIAN_POINT('',(87.2260049365563,35.,5.));
#523=CARTESIAN_POINT('',(87.7130024682782,35.,5.8105));
#524=CARTESIAN_POINT('Origin',(94.1,35.,5.));
#525=CARTESIAN_POINT('',(100.,35.,6.621));
#526=CARTESIAN_POINT('Origin',(100.,35.,5.));
#527=CARTESIAN_POINT('',(94.1,35.,6.621));
#528=CARTESIAN_POINT('Origin',(87.7130024682782,10.,5.));
#529=CARTESIAN_POINT('',(88.2,10.,6.621));
#530=CARTESIAN_POINT('Origin',(88.2,10.,5.));
#531=CARTESIAN_POINT('',(87.2260049365563,10.,5.));
#532=CARTESIAN_POINT('',(87.7130024682782,10.,5.8105));
#533=CARTESIAN_POINT('Origin',(94.1,10.,5.));
#534=CARTESIAN_POINT('',(100.,10.,6.621));
#535=CARTESIAN_POINT('Origin',(100.,10.,5.));
#536=CARTESIAN_POINT('',(94.1,10.,6.621));
#537=CARTESIAN_POINT('Origin',(12.2869975317218,35.,5.));
#538=CARTESIAN_POINT('',(11.8,35.,3.379));
#539=CARTESIAN_POINT('Origin',(11.8,35.,5.));
#540=CARTESIAN_POINT('',(12.7739950634437,35.,5.));
#541=CARTESIAN_POINT('',(12.2869975317218,35.,4.1895));
#542=CARTESIAN_POINT('Origin',(5.9,35.,5.));
#543=CARTESIAN_POINT('',(0.,35.,3.379));
#544=CARTESIAN_POINT('Origin',(0.,35.,5.));
#545=CARTESIAN_POINT('',(5.9,35.,3.379));
#546=CARTESIAN_POINT('Origin',(12.2869975317218,10.,5.));
#547=CARTESIAN_POINT('',(11.8,10.,3.379));
#548=CARTESIAN_POINT('Origin',(11.8,10.,5.));
#549=CARTESIAN_POINT('',(12.7739950634437,10.,5.));
#550=CARTESIAN_POINT('',(12.2869975317218,10.,4.1895));
#551=CARTESIAN_POINT('Origin',(5.9,10.,5.));
#552=CARTESIAN_POINT('',(0.,10.,3.379));
#553=CARTESIAN_POINT('Origin',(0.,10.,5.));
#554=CARTESIAN_POINT('',(5.9,10.,3.379));
#555=CARTESIAN_POINT('Origin',(50.,20.,4.));
#556=CARTESIAN_POINT('',(43.5,20.,4.));
#557=CARTESIAN_POINT('Origin',(50.,20.,4.));
#558=CARTESIAN_POINT('',(43.5,20.,-1.22124532708767E-14));
#559=CARTESIAN_POINT('',(43.5,20.,4.));
#560=CARTESIAN_POINT('Origin',(50.,20.,-1.22124532708767E-14));
#561=CARTESIAN_POINT('Origin',(50.,20.,7.));
#562=CARTESIAN_POINT('',(42.5,20.,7.00000000000001));
#563=CARTESIAN_POINT('Origin',(50.,20.,7.00000000000001));
#564=CARTESIAN_POINT('',(42.5,20.,4.));
#565=CARTESIAN_POINT('',(42.5,20.,7.));
#566=CARTESIAN_POINT('Origin',(50.,20.,4.));
#567=CARTESIAN_POINT('Origin',(50.,20.,4.));
#568=CARTESIAN_POINT('Origin',(100.,0.,9.99999999999999));
#569=CARTESIAN_POINT('',(100.,0.,9.99999999999999));
#570=CARTESIAN_POINT('',(100.,0.,-1.22464679914735E-14));
#571=CARTESIAN_POINT('',(100.,0.,9.99999999999999));
#572=CARTESIAN_POINT('',(100.,45.,-1.22464679914735E-14));
#573=CARTESIAN_POINT('',(100.,0.,-1.22464679914735E-14));
#574=CARTESIAN_POINT('',(100.,45.,9.99999999999999));
#575=CARTESIAN_POINT('',(100.,45.,9.99999999999999));
#576=CARTESIAN_POINT('',(100.,0.,9.99999999999999));
#577=CARTESIAN_POINT('Origin',(70.,0.,9.99999999999999));
#578=CARTESIAN_POINT('',(70.,0.,10.));
#579=CARTESIAN_POINT('',(0.,0.,10.));
#580=CARTESIAN_POINT('',(70.,45.,10.));
#581=CARTESIAN_POINT('',(0.,45.,10.));
#582=CARTESIAN_POINT('',(70.,0.,10.));
#583=CARTESIAN_POINT('Origin',(70.,0.,6.99999999999999));
#584=CARTESIAN_POINT('',(70.,0.,6.99999999999999));
#585=CARTESIAN_POINT('',(70.,0.,6.99999999999999));
#586=CARTESIAN_POINT('',(70.,45.,6.99999999999999));
#587=CARTESIAN_POINT('',(70.,45.,6.99999999999999));
#588=CARTESIAN_POINT('',(70.,0.,6.99999999999999));
#589=CARTESIAN_POINT('Origin',(30.,0.,7.00000000000001));
#590=CARTESIAN_POINT('',(30.,0.,7.00000000000001));
#591=CARTESIAN_POINT('',(30.,0.,7.00000000000001));
#592=CARTESIAN_POINT('',(30.,45.,7.00000000000001));
#593=CARTESIAN_POINT('',(30.,45.,7.00000000000001));
#594=CARTESIAN_POINT('',(30.,0.,7.00000000000001));
#595=CARTESIAN_POINT('Origin',(30.,0.,10.));
#596=CARTESIAN_POINT('',(30.,0.,10.));
#597=CARTESIAN_POINT('',(30.,0.,10.));
#598=CARTESIAN_POINT('',(30.,45.,10.));
#599=CARTESIAN_POINT('',(30.,45.,10.));
#600=CARTESIAN_POINT('',(30.,0.,10.));
#601=CARTESIAN_POINT('Origin',(0.,0.,10.));
#602=CARTESIAN_POINT('',(0.,0.,10.));
#603=CARTESIAN_POINT('',(0.,0.,10.));
#604=CARTESIAN_POINT('',(0.,45.,10.));
#605=CARTESIAN_POINT('',(0.,45.,10.));
#606=CARTESIAN_POINT('',(0.,0.,10.));
#607=CARTESIAN_POINT('Origin',(0.,0.,0.));
#608=CARTESIAN_POINT('',(0.,0.,0.));
#609=CARTESIAN_POINT('',(0.,0.,0.));
#610=CARTESIAN_POINT('',(0.,45.,0.));
#611=CARTESIAN_POINT('',(0.,45.,0.));
#612=CARTESIAN_POINT('',(0.,0.,0.));
#613=CARTESIAN_POINT('Origin',(100.,0.,-1.22464679914735E-14));
#614=CARTESIAN_POINT('',(100.,0.,-1.22464679914735E-14));
#615=CARTESIAN_POINT('',(100.,45.,-1.22464679914735E-14));
#616=CARTESIAN_POINT('Origin',(50.,45.,5.));
#617=CARTESIAN_POINT('Origin',(50.,0.,5.));
#618=UNCERTAINTY_MEASURE_WITH_UNIT(LENGTH_MEASURE(0.01),#622,
'DISTANCE_ACCURACY_VALUE',
'Maximum model space distance between geometric entities at asserted c
onnectivities');
#619=UNCERTAINTY_MEASURE_WITH_UNIT(LENGTH_MEASURE(0.01),#622,
'DISTANCE_ACCURACY_VALUE',
'Maximum model space distance between geometric entities at asserted c
onnectivities');
#620=(
GEOMETRIC_REPRESENTATION_CONTEXT(3)
GLOBAL_UNCERTAINTY_ASSIGNED_CONTEXT((#618))
GLOBAL_UNIT_ASSIGNED_CONTEXT((#622,#624,#625))
REPRESENTATION_CONTEXT('','3D')
);
#621=(
GEOMETRIC_REPRESENTATION_CONTEXT(3)
GLOBAL_UNCERTAINTY_ASSIGNED_CONTEXT((#619))
GLOBAL_UNIT_ASSIGNED_CONTEXT((#622,#624,#625))
REPRESENTATION_CONTEXT('','3D')
);
#622=(
LENGTH_UNIT()
NAMED_UNIT(*)
SI_UNIT(.MILLI.,.METRE.)
);
#623=(
LENGTH_UNIT()
NAMED_UNIT(*)
SI_UNIT(.CENTI.,.METRE.)
);
#624=(
NAMED_UNIT(*)
PLANE_ANGLE_UNIT()
SI_UNIT($,.RADIAN.)
);
#625=(
NAMED_UNIT(*)
SI_UNIT($,.STERADIAN.)
SOLID_ANGLE_UNIT()
);
#626=SHAPE_DEFINITION_REPRESENTATION(#627,#628);
#627=PRODUCT_DEFINITION_SHAPE('',$,#630);
#628=SHAPE_REPRESENTATION('',(#382),#620);
#629=PRODUCT_DEFINITION_CONTEXT('part definition',#634,'design');
#630=PRODUCT_DEFINITION('petite plaque moteur','petite plaque moteur',#631,
#629);
#631=PRODUCT_DEFINITION_FORMATION('',$,#636);
#632=PRODUCT_RELATED_PRODUCT_CATEGORY('petite plaque moteur',
'petite plaque moteur',(#636));
#633=APPLICATION_PROTOCOL_DEFINITION('international standard',
'automotive_design',2009,#634);
#634=APPLICATION_CONTEXT(
'Core Data for Automotive Mechanical Design Process');
#635=PRODUCT_CONTEXT('part definition',#634,'mechanical');
#636=PRODUCT('petite plaque moteur','petite plaque moteur',$,(#635));
#637=PRESENTATION_STYLE_ASSIGNMENT((#638));
#638=SURFACE_STYLE_USAGE(.BOTH.,#641);
#639=SURFACE_STYLE_RENDERING_WITH_PROPERTIES($,#645,(#640));
#640=SURFACE_STYLE_TRANSPARENT(0.);
#641=SURFACE_SIDE_STYLE('',(#642,#639));
#642=SURFACE_STYLE_FILL_AREA(#643);
#643=FILL_AREA_STYLE('',(#644));
#644=FILL_AREA_STYLE_COLOUR('',#645);
#645=COLOUR_RGB('',0.956862745098039,0.956862745098039,0.956862745098039);
ENDSEC;
END-ISO-10303-21;
