                                                                        S      1
,,,6HFS CP2,33HAutoCAD 2019 - Français (French),62HAutodesk TranslationG      1
 Framework DWG producer (atf_dwg_producer),32,38,7,99,15,,1.,1,4HINCH,1,G      2
0.08,15H20210522.125507,0.000393700787401575,10000.,,7Hunknown,11,0,15H2G      3
0210522.065009;                                                         G      4
     186       1                       0                        00000000D      1
     186            -105       1       0                               0D      2
     514       2                                                00010000D      3
     514                       1       1                               0D      4
     510       3                                                00010000D      5
     510            -105       1       1                               0D      6
     510       4                                                00010000D      7
     510            -105       1       1                               0D      8
     510       5                                                00010000D      9
     510            -105       1       1                               0D     10
     510       6                                                00010000D     11
     510            -105       1       1                               0D     12
     510       7                                                00010000D     13
     510            -105       1       1                               0D     14
     510       8                                                00010000D     15
     510            -105       1       1                               0D     16
     510       9                                                00010000D     17
     510            -105       1       1                               0D     18
     510      10                                                00010000D     19
     510            -105       1       1                               0D     20
     508      11                                                00010000D     21
     508                       1       1                               0D     22
     508      12                                                00010000D     23
     508                       1       1                               0D     24
     508      13                                                00010000D     25
     508                       1       1                               0D     26
     508      14                                                00010000D     27
     508                       1       1                               0D     28
     508      15                                                00010000D     29
     508                       1       1                               0D     30
     508      16                                                00010000D     31
     508                       1       1                               0D     32
     508      17                                                00010000D     33
     508                       1       1                               0D     34
     508      18                                                00010000D     35
     508                       1       1                               0D     36
     508      19                                                00010000D     37
     508                       1       1                               0D     38
     508      20                                                00010000D     39
     508                       1       1                               0D     40
     508      21                                                00010000D     41
     508                       1       1                               0D     42
     508      22                                                00010000D     43
     508                       1       1                               0D     44
     126      23                                                00010000D     45
     126       0               3       0                               0D     46
     126      26                                                00010000D     47
     126       0               3       0                               0D     48
     126      29                                                00010000D     49
     126       0               3       0                               0D     50
     126      32                                                00010000D     51
     126       0               3       0                               0D     52
     126      35                                                00010000D     53
     126       0              12       0                               0D     54
     126      47                                                00010000D     55
     126       0              12       0                               0D     56
     126      59                                                00010000D     57
     126       0               3       0                               0D     58
     126      62                                                00010000D     59
     126       0               3       0                               0D     60
     126      65                                                00010000D     61
     126       0               3       0                               0D     62
     126      68                                                00010000D     63
     126       0               3       0                               0D     64
     126      71                                                00010000D     65
     126       0               3       0                               0D     66
     126      74                                                00010000D     67
     126       0              12       0                               0D     68
     126      86                                                00010000D     69
     126       0               3       0                               0D     70
     126      89                                                00010000D     71
     126       0              12       0                               0D     72
     126     101                                                00010000D     73
     126       0               3       0                               0D     74
     126     104                                                00010000D     75
     126       0               3       0                               0D     76
     126     107                                                00010000D     77
     126       0               3       0                               0D     78
     126     110                                                00010000D     79
     126       0               3       0                               0D     80
     128     113                                                00010000D     81
     128       0    -105       5       0                               0D     82
     128     118                                                00010000D     83
     128       0    -105       5       0                               0D     84
     128     123                                                00010000D     85
     128       0    -105       6       0                               0D     86
     128     129                                                00010000D     87
     128       0    -105      20       0                               0D     88
     128     149                                                00010000D     89
     128       0    -105      20       0                               0D     90
     128     169                                                00010000D     91
     128       0    -105       5       0                               0D     92
     128     174                                                00010000D     93
     128       0    -105       6       0                               0D     94
     128     180                                                00010000D     95
     128       0    -105       6       0                               0D     96
     502     186                                                00010000D     97
     502                       8       1                               0D     98
     504     194                                                00010001D     99
     504                       4       1                               0D    100
     406     198                                                00000000D    101
     406                       1      15                               0D    102
     406     199                       0                        00000000D    103
     406                       1       3                               0D    104
     314     200                                                00000200D    105
     314                       1       0                               0D    106
186,3,1,0,0,1,101;                                                     1P      1
514,8,5,1,7,1,9,1,11,1,13,1,15,1,17,1,19,1;                            3P      2
510,81,3,1,21,23,25;                                                   5P      3
510,83,1,1,27;                                                         7P      4
510,85,1,1,29;                                                         9P      5
510,87,1,1,31;                                                        11P      6
510,89,1,1,33;                                                        13P      7
510,91,1,1,35;                                                        15P      8
510,93,1,1,37;                                                        17P      9
510,95,3,1,39,41,43;                                                  19P     10
508,4,0,99,1,0,0,0,99,2,0,0,0,99,3,0,0,0,99,4,0,0;                    21P     11
508,1,0,99,5,0,0;                                                     23P     12
508,1,0,99,6,0,0;                                                     25P     13
508,4,0,99,2,1,0,0,99,7,0,0,0,99,8,1,0,0,99,9,1,0;                    27P     14
508,4,0,99,1,1,0,0,99,10,0,0,0,99,11,1,0,0,99,7,1,0;                  29P     15
508,4,0,99,12,0,0,0,99,13,1,0,0,99,5,1,0,0,99,13,0,0;                 31P     16
508,4,0,99,14,0,0,0,99,15,1,0,0,99,6,1,0,0,99,15,0,0;                 33P     17
508,4,0,99,4,1,0,0,99,16,0,0,0,99,17,1,0,0,99,10,1,0;                 35P     18
508,4,0,99,3,1,0,0,99,9,0,0,0,99,18,1,0,0,99,16,1,0;                  37P     19
508,4,0,99,18,0,0,0,99,8,0,0,0,99,11,0,0,0,99,17,0,0;                 39P     20
508,1,0,99,12,1,0;                                                    41P     21
508,1,0,99,14,1,0;                                                    43P     22
126,1,1,0,0,1,0,-120.,-120.,40.,40.,1.,1.,3.86180181521922D-6,        45P     23
49.9999989469588,3.,160.000003861802,49.9999989469588,3.,-120.,       45P     24
40.,0.,0.,0.;                                                         45P     25
126,1,1,0,0,1,0,-37.5,-37.5,12.5,12.5,1.,1.,3.86180181521922D-6,      47P     26
-1.05304116004845D-6,3.,3.86180181521922D-6,49.9999989469588,3.,      47P     27
-37.5,12.5,0.,0.,0.;                                                  47P     28
126,1,1,0,0,1,0,-120.,-120.,40.,40.,1.,1.,160.000003861802,           49P     29
-1.05304116004845D-6,3.,3.86180181521922D-6,                          49P     30
-1.05304116004845D-6,3.,-120.,40.,0.,0.,0.;                           49P     31
126,1,1,0,0,1,0,-37.5,-37.5,12.5,12.5,1.,1.,160.000003861802,         51P     32
49.9999989469588,3.,160.000003861802,-1.05304116004845D-6,3.,         51P     33
-37.5,12.5,0.,0.,0.;                                                  51P     34
126,8,2,0,1,0,0,-3.14159265358979,-3.14159265358979,                  53P     35
-3.14159265358979,-1.5707963267949,-1.5707963267949,0.,0.,            53P     36
1.5707963267949,1.5707963267949,3.14159265358979,                     53P     37
3.14159265358979,3.14159265358979,1.,0.707106781186548,1.,            53P     38
0.707106781186548,1.,0.707106781186548,1.,0.707106781186548,1.,       53P     39
41.809012193633,24.9999989469588,3.,41.809012193633,                  53P     40
34.9999989469588,3.,31.809012193633,34.9999989469588,3.,              53P     41
21.809012193633,34.9999989469588,3.,21.809012193633,                  53P     42
24.9999989469588,3.,21.809012193633,14.9999989469588,3.,              53P     43
31.809012193633,14.9999989469588,3.,41.809012193633,                  53P     44
14.9999989469588,3.,41.809012193633,24.9999989469588,3.,              53P     45
-3.14159265358979,3.14159265358979,0.,0.,0.;                          53P     46
126,8,2,0,1,0,0,-3.14159265358979,-3.14159265358979,                  55P     47
-3.14159265358979,-1.5707963267949,-1.5707963267949,0.,0.,            55P     48
1.5707963267949,1.5707963267949,3.14159265358979,                     55P     49
3.14159265358979,3.14159265358979,1.,0.707106781186548,1.,            55P     50
0.707106781186548,1.,0.707106781186548,1.,0.707106781186548,1.,       55P     51
141.809012193633,24.9999989469588,3.,141.809012193633,                55P     52
34.9999989469588,3.,131.809012193633,34.9999989469588,3.,             55P     53
121.809012193633,34.9999989469588,3.,121.809012193633,                55P     54
24.9999989469588,3.,121.809012193633,14.9999989469588,3.,             55P     55
131.809012193633,14.9999989469588,3.,141.809012193633,                55P     56
14.9999989469588,3.,141.809012193633,24.9999989469588,3.,             55P     57
-3.14159265358979,3.14159265358979,0.,0.,0.;                          55P     58
126,1,1,0,0,1,0,0.,0.,3.,3.,1.,1.,3.86180181521922D-6,                57P     59
49.9999989469588,0.,3.86180181521922D-6,49.9999989469588,3.,0.,       57P     60
3.,0.,0.,0.;                                                          57P     61
126,1,1,0,0,1,0,0.,0.,50.,50.,1.,1.,3.86180181521922D-6,              59P     62
49.9999989469588,0.,3.86180181521922D-6,-1.05304116004845D-6,0.,      59P     63
0.,50.,0.,0.,0.;                                                      59P     64
126,1,1,0,0,1,0,0.,0.,3.,3.,1.,1.,3.86180181521922D-6,                61P     65
-1.05304116004845D-6,0.,3.86180181521922D-6,                          61P     66
-1.05304116004845D-6,3.,0.,3.,0.,0.,0.;                               61P     67
126,1,1,0,0,1,0,0.,0.,3.,3.,1.,1.,160.000003861802,                   63P     68
49.9999989469588,0.,160.000003861802,49.9999989469588,3.,0.,3.,       63P     69
0.,0.,0.;                                                             63P     70
126,1,1,0,0,1,0,0.,0.,160.,160.,1.,1.,160.000003861802,               65P     71
49.9999989469588,0.,3.86180181521922D-6,49.9999989469588,0.,0.,       65P     72
160.,0.,0.,0.;                                                        65P     73
126,8,2,0,1,0,0,-3.14159265358979,-3.14159265358979,                  67P     74
-3.14159265358979,-1.5707963267949,-1.5707963267949,0.,0.,            67P     75
1.5707963267949,1.5707963267949,3.14159265358979,                     67P     76
3.14159265358979,3.14159265358979,1.,0.707106781186548,1.,            67P     77
0.707106781186548,1.,0.707106781186548,1.,0.707106781186548,1.,       67P     78
41.809012193633,24.9999989469588,0.,41.809012193633,                  67P     79
34.9999989469588,0.,31.809012193633,34.9999989469588,0.,              67P     80
21.809012193633,34.9999989469588,0.,21.809012193633,                  67P     81
24.9999989469588,0.,21.809012193633,14.9999989469588,0.,              67P     82
31.809012193633,14.9999989469588,0.,41.809012193633,                  67P     83
14.9999989469588,0.,41.809012193633,24.9999989469588,0.,              67P     84
-3.14159265358979,3.14159265358979,0.,0.,0.;                          67P     85
126,1,1,0,0,1,0,0.,0.,0.3,0.3,1.,1.,41.809012193633,                  69P     86
24.9999989469588,0.,41.809012193633,24.9999989469588,3.,0.,0.3,       69P     87
0.,0.,0.;                                                             69P     88
126,8,2,0,1,0,0,-3.14159265358979,-3.14159265358979,                  71P     89
-3.14159265358979,-1.5707963267949,-1.5707963267949,0.,0.,            71P     90
1.5707963267949,1.5707963267949,3.14159265358979,                     71P     91
3.14159265358979,3.14159265358979,1.,0.707106781186548,1.,            71P     92
0.707106781186548,1.,0.707106781186548,1.,0.707106781186548,1.,       71P     93
141.809012193633,24.9999989469588,0.,141.809012193633,                71P     94
34.9999989469588,0.,131.809012193633,34.9999989469588,0.,             71P     95
121.809012193633,34.9999989469588,0.,121.809012193633,                71P     96
24.9999989469588,0.,121.809012193633,14.9999989469588,0.,             71P     97
131.809012193633,14.9999989469588,0.,141.809012193633,                71P     98
14.9999989469588,0.,141.809012193633,24.9999989469588,0.,             71P     99
-3.14159265358979,3.14159265358979,0.,0.,0.;                          71P    100
126,1,1,0,0,1,0,0.,0.,0.3,0.3,1.,1.,141.809012193633,                 73P    101
24.9999989469588,0.,141.809012193633,24.9999989469588,3.,0.,0.3,      73P    102
0.,0.,0.;                                                             73P    103
126,1,1,0,0,1,0,0.,0.,3.,3.,1.,1.,160.000003861802,                   75P    104
-1.05304116004845D-6,0.,160.000003861802,-1.05304116004845D-6,        75P    105
3.,0.,3.,0.,0.,0.;                                                    75P    106
126,1,1,0,0,1,0,0.,0.,50.,50.,1.,1.,160.000003861802,                 77P    107
-1.05304116004845D-6,0.,160.000003861802,49.9999989469588,0.,0.,      77P    108
50.,0.,0.,0.;                                                         77P    109
126,1,1,0,0,1,0,0.,0.,160.,160.,1.,1.,3.86180181521922D-6,            79P    110
-1.05304116004845D-6,0.,160.000003861802,-1.05304116004845D-6,        79P    111
0.,0.,160.,0.,0.,0.;                                                  79P    112
128,1,1,1,1,0,0,1,0,0,-80.001,-80.001,80.001,80.001,-25.001,          81P    113
-25.001,25.001,25.001,1.,1.,1.,1.,-0.000996138198189556,              81P    114
-0.00100105304116127,3.,160.001003861802,-0.00100105304116127,        81P    115
3.,-0.000996138198189556,50.0009989469588,3.,160.001003861802,        81P    116
50.0009989469588,3.,-80.001,80.001,-25.001,25.001;                    81P    117
128,1,1,1,1,0,0,1,0,0,-0.001,-0.001,50.001,50.001,-0.001,-0.001,      83P    118
3.001,3.001,1.,1.,1.,1.,3.86180181521922D-6,50.0009989469588,         83P    119
-0.001,3.86180181521922D-6,-0.00100105304115772,-0.001,               83P    120
3.86180181521922D-6,50.0009989469588,3.001,3.86180181521922D-6,       83P    121
-0.00100105304115772,3.001,-0.001,50.001,-0.001,3.001;                83P    122
128,1,1,1,1,0,0,1,0,0,-0.001,-0.001,160.001,160.001,-0.001,           85P    123
-0.001,3.001,3.001,1.,1.,1.,1.,160.001003861802,                      85P    124
49.9999989469588,-0.001,-0.000996138198189556,49.9999989469588,       85P    125
-0.001,160.001003861802,49.9999989469588,3.001,                       85P    126
-0.000996138198189556,49.9999989469588,3.001,-0.001,160.001,          85P    127
-0.001,3.001;                                                         85P    128
128,1,8,1,2,0,1,0,0,1,0.,0.,0.3,0.3,-3.14159265358979,                87P    129
-3.14159265358979,-3.14159265358979,-1.5707963267949,                 87P    130
-1.5707963267949,0.,0.,1.5707963267949,1.5707963267949,               87P    131
3.14159265358979,3.14159265358979,3.14159265358979,1.,1.,             87P    132
0.707106781186548,0.707106781186548,1.,1.,0.707106781186548,          87P    133
0.707106781186548,1.,1.,0.707106781186548,0.707106781186548,1.,       87P    134
1.,0.707106781186548,0.707106781186548,1.,1.,41.809012193633,         87P    135
24.9999989469588,0.,41.809012193633,24.9999989469588,3.,              87P    136
41.809012193633,34.9999989469588,0.,41.809012193633,                  87P    137
34.9999989469588,3.,31.809012193633,34.9999989469588,0.,              87P    138
31.809012193633,34.9999989469588,3.,21.809012193633,                  87P    139
34.9999989469588,0.,21.809012193633,34.9999989469588,3.,              87P    140
21.809012193633,24.9999989469588,0.,21.809012193633,                  87P    141
24.9999989469588,3.,21.809012193633,14.9999989469588,0.,              87P    142
21.809012193633,14.9999989469588,3.,31.809012193633,                  87P    143
14.9999989469588,0.,31.809012193633,14.9999989469588,3.,              87P    144
41.809012193633,14.9999989469588,0.,41.809012193633,                  87P    145
14.9999989469588,3.,41.809012193633,24.9999989469588,0.,              87P    146
41.809012193633,24.9999989469588,3.,0.,0.3,-3.14159265358979,         87P    147
3.14159265358979;                                                     87P    148
128,1,8,1,2,0,1,0,0,1,0.,0.,0.3,0.3,-3.14159265358979,                89P    149
-3.14159265358979,-3.14159265358979,-1.5707963267949,                 89P    150
-1.5707963267949,0.,0.,1.5707963267949,1.5707963267949,               89P    151
3.14159265358979,3.14159265358979,3.14159265358979,1.,1.,             89P    152
0.707106781186548,0.707106781186548,1.,1.,0.707106781186548,          89P    153
0.707106781186548,1.,1.,0.707106781186548,0.707106781186548,1.,       89P    154
1.,0.707106781186548,0.707106781186548,1.,1.,141.809012193633,        89P    155
24.9999989469588,0.,141.809012193633,24.9999989469588,3.,             89P    156
141.809012193633,34.9999989469588,0.,141.809012193633,                89P    157
34.9999989469588,3.,131.809012193633,34.9999989469588,0.,             89P    158
131.809012193633,34.9999989469588,3.,121.809012193633,                89P    159
34.9999989469588,0.,121.809012193633,34.9999989469588,3.,             89P    160
121.809012193633,24.9999989469588,0.,121.809012193633,                89P    161
24.9999989469588,3.,121.809012193633,14.9999989469588,0.,             89P    162
121.809012193633,14.9999989469588,3.,131.809012193633,                89P    163
14.9999989469588,0.,131.809012193633,14.9999989469588,3.,             89P    164
141.809012193633,14.9999989469588,0.,141.809012193633,                89P    165
14.9999989469588,3.,141.809012193633,24.9999989469588,0.,             89P    166
141.809012193633,24.9999989469588,3.,0.,0.3,-3.14159265358979,        89P    167
3.14159265358979;                                                     89P    168
128,1,1,1,1,0,0,1,0,0,-0.001,-0.001,50.001,50.001,-0.001,-0.001,      91P    169
3.001,3.001,1.,1.,1.,1.,160.000003861802,-0.00100105304116005,        91P    170
-0.001,160.000003861802,50.0009989469588,-0.001,                      91P    171
160.000003861802,-0.00100105304116005,3.001,160.000003861802,         91P    172
50.0009989469588,3.001,-0.001,50.001,-0.001,3.001;                    91P    173
128,1,1,1,1,0,0,1,0,0,-0.001,-0.001,160.001,160.001,-0.001,           93P    174
-0.001,3.001,3.001,1.,1.,1.,1.,-0.000996138198184781,                 93P    175
-1.05304116004845D-6,-0.001,160.001003861802,                         93P    176
-1.05304116004845D-6,-0.001,-0.000996138198184781,                    93P    177
-1.05304116004845D-6,3.001,160.001003861802,                          93P    178
-1.05304116004845D-6,3.001,-0.001,160.001,-0.001,3.001;               93P    179
128,1,1,1,1,0,0,1,0,0,-80.001,-80.001,80.001,80.001,-25.001,          95P    180
-25.001,25.001,25.001,1.,1.,1.,1.,160.001003861802,                   95P    181
-0.00100105304116127,0.,-0.000996138198189556,                        95P    182
-0.00100105304116127,0.,160.001003861802,50.0009989469588,0.,         95P    183
-0.000996138198189556,50.0009989469588,0.,-80.001,80.001,             95P    184
-25.001,25.001;                                                       95P    185
502,12,3.86180181521922D-6,49.9999989469588,3.,160.000003861802,      97P    186
49.9999989469588,3.,3.86180181521922D-6,-1.05304116004845D-6,3.,      97P    187
160.000003861802,-1.05304116004845D-6,3.,41.809012193633,             97P    188
24.9999989469588,3.,141.809012193633,24.9999989469588,3.,             97P    189
3.86180181521922D-6,49.9999989469588,0.,3.86180181521922D-6,          97P    190
-1.05304116004845D-6,0.,160.000003861802,49.9999989469588,0.,         97P    191
41.809012193633,24.9999989469588,0.,141.809012193633,                 97P    192
24.9999989469588,0.,160.000003861802,-1.05304116004845D-6,0.;         97P    193
504,18,45,97,1,97,2,47,97,3,97,1,49,97,4,97,3,51,97,2,97,4,53,        99P    194
97,5,97,5,55,97,6,97,6,57,97,7,97,1,59,97,7,97,8,61,97,8,97,3,        99P    195
63,97,9,97,2,65,97,9,97,7,67,97,10,97,10,69,97,10,97,5,71,97,11,      99P    196
97,11,73,97,11,97,6,75,97,12,97,4,77,97,12,97,9,79,97,8,97,12;        99P    197
406,1,2H67;                                                          101P    198
406,2,0,1H0;                                                         103P    199
314,100.,100.,100.,;                                                 105P    200
S      1G      4D    106P    200                                        T      1
