ISO-10303-21;
HEADER;
FILE_DESCRIPTION((''),'2;1');
FILE_NAME('KRAMP_ROUE_JOCKEY_FOURCHE1','2021-05-04T11:14:21',('itang'),(''),
'CREO PARAMETRIC BY PTC INC, 2020281','CREO PARAMETRIC BY PTC INC, 2020281','');
FILE_SCHEMA(('CONFIG_CONTROL_DESIGN'));
ENDSEC;
DATA;
#1=DIRECTION('',(0.E0,-1.E0,0.E0));
#2=VECTOR('',#1,5.9E1);
#3=CARTESIAN_POINT('',(-1.5E2,5.9E1,0.E0));
#4=LINE('',#3,#2);
#5=DIRECTION('',(1.E0,0.E0,0.E0));
#6=VECTOR('',#5,1.5E2);
#7=CARTESIAN_POINT('',(-1.5E2,0.E0,0.E0));
#8=LINE('',#7,#6);
#9=DIRECTION('',(0.E0,1.E0,0.E0));
#10=VECTOR('',#9,5.9E1);
#11=CARTESIAN_POINT('',(0.E0,0.E0,0.E0));
#12=LINE('',#11,#10);
#13=DIRECTION('',(-1.E0,0.E0,0.E0));
#14=VECTOR('',#13,1.5E2);
#15=CARTESIAN_POINT('',(0.E0,5.9E1,0.E0));
#16=LINE('',#15,#14);
#17=CARTESIAN_POINT('',(-7.5E1,2.95E1,0.E0));
#18=DIRECTION('',(0.E0,0.E0,1.E0));
#19=DIRECTION('',(1.E0,0.E0,0.E0));
#20=AXIS2_PLACEMENT_3D('',#17,#18,#19);
#22=CARTESIAN_POINT('',(-7.5E1,2.95E1,0.E0));
#23=DIRECTION('',(0.E0,0.E0,1.E0));
#24=DIRECTION('',(-1.E0,0.E0,0.E0));
#25=AXIS2_PLACEMENT_3D('',#22,#23,#24);
#27=DIRECTION('',(0.E0,0.E0,1.E0));
#28=VECTOR('',#27,1.E1);
#29=CARTESIAN_POINT('',(-1.5E2,5.9E1,0.E0));
#30=LINE('',#29,#28);
#31=DIRECTION('',(0.E0,0.E0,1.E0));
#32=VECTOR('',#31,1.E1);
#33=CARTESIAN_POINT('',(0.E0,5.9E1,0.E0));
#34=LINE('',#33,#32);
#35=DIRECTION('',(0.E0,0.E0,1.E0));
#36=VECTOR('',#35,1.E1);
#37=CARTESIAN_POINT('',(0.E0,0.E0,0.E0));
#38=LINE('',#37,#36);
#39=DIRECTION('',(0.E0,0.E0,1.E0));
#40=VECTOR('',#39,1.E1);
#41=CARTESIAN_POINT('',(-1.5E2,0.E0,0.E0));
#42=LINE('',#41,#40);
#43=DIRECTION('',(0.E0,-1.E0,0.E0));
#44=VECTOR('',#43,5.9E1);
#45=CARTESIAN_POINT('',(-1.5E2,5.9E1,1.E1));
#46=LINE('',#45,#44);
#47=DIRECTION('',(-1.E0,0.E0,0.E0));
#48=VECTOR('',#47,1.5E2);
#49=CARTESIAN_POINT('',(0.E0,5.9E1,1.E1));
#50=LINE('',#49,#48);
#51=DIRECTION('',(0.E0,1.E0,0.E0));
#52=VECTOR('',#51,5.9E1);
#53=CARTESIAN_POINT('',(0.E0,0.E0,1.E1));
#54=LINE('',#53,#52);
#55=DIRECTION('',(1.E0,0.E0,0.E0));
#56=VECTOR('',#55,1.5E2);
#57=CARTESIAN_POINT('',(-1.5E2,0.E0,1.E1));
#58=LINE('',#57,#56);
#59=CARTESIAN_POINT('',(-7.5E1,2.95E1,1.E1));
#60=DIRECTION('',(0.E0,0.E0,1.E0));
#61=DIRECTION('',(1.E0,0.E0,0.E0));
#62=AXIS2_PLACEMENT_3D('',#59,#60,#61);
#64=CARTESIAN_POINT('',(-7.5E1,2.95E1,1.E1));
#65=DIRECTION('',(0.E0,0.E0,1.E0));
#66=DIRECTION('',(-1.E0,0.E0,0.E0));
#67=AXIS2_PLACEMENT_3D('',#64,#65,#66);
#69=DIRECTION('',(0.E0,0.E0,1.E0));
#70=VECTOR('',#69,1.E1);
#71=CARTESIAN_POINT('',(-6.5E1,2.95E1,0.E0));
#72=LINE('',#71,#70);
#73=DIRECTION('',(0.E0,0.E0,1.E0));
#74=VECTOR('',#73,1.E1);
#75=CARTESIAN_POINT('',(-8.5E1,2.95E1,0.E0));
#76=LINE('',#75,#74);
#77=CARTESIAN_POINT('',(-1.5E2,5.9E1,0.E0));
#78=CARTESIAN_POINT('',(-1.5E2,0.E0,0.E0));
#79=VERTEX_POINT('',#77);
#80=VERTEX_POINT('',#78);
#81=CARTESIAN_POINT('',(0.E0,0.E0,0.E0));
#82=VERTEX_POINT('',#81);
#83=CARTESIAN_POINT('',(0.E0,5.9E1,0.E0));
#84=VERTEX_POINT('',#83);
#85=CARTESIAN_POINT('',(-1.5E2,5.9E1,1.E1));
#86=CARTESIAN_POINT('',(-1.5E2,0.E0,1.E1));
#87=VERTEX_POINT('',#85);
#88=VERTEX_POINT('',#86);
#89=CARTESIAN_POINT('',(0.E0,0.E0,1.E1));
#90=VERTEX_POINT('',#89);
#91=CARTESIAN_POINT('',(0.E0,5.9E1,1.E1));
#92=VERTEX_POINT('',#91);
#93=CARTESIAN_POINT('',(-6.5E1,2.95E1,0.E0));
#94=CARTESIAN_POINT('',(-8.5E1,2.95E1,0.E0));
#95=VERTEX_POINT('',#93);
#96=VERTEX_POINT('',#94);
#97=CARTESIAN_POINT('',(-6.5E1,2.95E1,1.E1));
#98=CARTESIAN_POINT('',(-8.5E1,2.95E1,1.E1));
#99=VERTEX_POINT('',#97);
#100=VERTEX_POINT('',#98);
#101=CARTESIAN_POINT('',(0.E0,0.E0,0.E0));
#102=DIRECTION('',(0.E0,0.E0,1.E0));
#103=DIRECTION('',(1.E0,0.E0,0.E0));
#104=AXIS2_PLACEMENT_3D('',#101,#102,#103);
#105=PLANE('',#104);
#107=ORIENTED_EDGE('',*,*,#106,.T.);
#109=ORIENTED_EDGE('',*,*,#108,.T.);
#111=ORIENTED_EDGE('',*,*,#110,.T.);
#113=ORIENTED_EDGE('',*,*,#112,.T.);
#114=EDGE_LOOP('',(#107,#109,#111,#113));
#115=FACE_OUTER_BOUND('',#114,.F.);
#117=ORIENTED_EDGE('',*,*,#116,.F.);
#119=ORIENTED_EDGE('',*,*,#118,.F.);
#120=EDGE_LOOP('',(#117,#119));
#121=FACE_BOUND('',#120,.F.);
#122=ADVANCED_FACE('',(#115,#121),#105,.F.);
#123=CARTESIAN_POINT('',(-1.5E2,5.9E1,0.E0));
#124=DIRECTION('',(-1.E0,0.E0,0.E0));
#125=DIRECTION('',(0.E0,-1.E0,0.E0));
#126=AXIS2_PLACEMENT_3D('',#123,#124,#125);
#127=PLANE('',#126);
#128=ORIENTED_EDGE('',*,*,#106,.F.);
#130=ORIENTED_EDGE('',*,*,#129,.T.);
#132=ORIENTED_EDGE('',*,*,#131,.T.);
#134=ORIENTED_EDGE('',*,*,#133,.F.);
#135=EDGE_LOOP('',(#128,#130,#132,#134));
#136=FACE_OUTER_BOUND('',#135,.F.);
#137=ADVANCED_FACE('',(#136),#127,.T.);
#138=CARTESIAN_POINT('',(0.E0,5.9E1,0.E0));
#139=DIRECTION('',(0.E0,1.E0,0.E0));
#140=DIRECTION('',(-1.E0,0.E0,0.E0));
#141=AXIS2_PLACEMENT_3D('',#138,#139,#140);
#142=PLANE('',#141);
#143=ORIENTED_EDGE('',*,*,#112,.F.);
#145=ORIENTED_EDGE('',*,*,#144,.T.);
#147=ORIENTED_EDGE('',*,*,#146,.T.);
#148=ORIENTED_EDGE('',*,*,#129,.F.);
#149=EDGE_LOOP('',(#143,#145,#147,#148));
#150=FACE_OUTER_BOUND('',#149,.F.);
#151=ADVANCED_FACE('',(#150),#142,.T.);
#152=CARTESIAN_POINT('',(0.E0,0.E0,0.E0));
#153=DIRECTION('',(1.E0,0.E0,0.E0));
#154=DIRECTION('',(0.E0,1.E0,0.E0));
#155=AXIS2_PLACEMENT_3D('',#152,#153,#154);
#156=PLANE('',#155);
#157=ORIENTED_EDGE('',*,*,#110,.F.);
#159=ORIENTED_EDGE('',*,*,#158,.T.);
#161=ORIENTED_EDGE('',*,*,#160,.T.);
#162=ORIENTED_EDGE('',*,*,#144,.F.);
#163=EDGE_LOOP('',(#157,#159,#161,#162));
#164=FACE_OUTER_BOUND('',#163,.F.);
#165=ADVANCED_FACE('',(#164),#156,.T.);
#166=CARTESIAN_POINT('',(-1.5E2,0.E0,0.E0));
#167=DIRECTION('',(0.E0,-1.E0,0.E0));
#168=DIRECTION('',(1.E0,0.E0,0.E0));
#169=AXIS2_PLACEMENT_3D('',#166,#167,#168);
#170=PLANE('',#169);
#171=ORIENTED_EDGE('',*,*,#108,.F.);
#172=ORIENTED_EDGE('',*,*,#133,.T.);
#174=ORIENTED_EDGE('',*,*,#173,.T.);
#175=ORIENTED_EDGE('',*,*,#158,.F.);
#176=EDGE_LOOP('',(#171,#172,#174,#175));
#177=FACE_OUTER_BOUND('',#176,.F.);
#178=ADVANCED_FACE('',(#177),#170,.T.);
#179=CARTESIAN_POINT('',(0.E0,0.E0,1.E1));
#180=DIRECTION('',(0.E0,0.E0,1.E0));
#181=DIRECTION('',(1.E0,0.E0,0.E0));
#182=AXIS2_PLACEMENT_3D('',#179,#180,#181);
#183=PLANE('',#182);
#184=ORIENTED_EDGE('',*,*,#131,.F.);
#185=ORIENTED_EDGE('',*,*,#146,.F.);
#186=ORIENTED_EDGE('',*,*,#160,.F.);
#187=ORIENTED_EDGE('',*,*,#173,.F.);
#188=EDGE_LOOP('',(#184,#185,#186,#187));
#189=FACE_OUTER_BOUND('',#188,.F.);
#191=ORIENTED_EDGE('',*,*,#190,.T.);
#193=ORIENTED_EDGE('',*,*,#192,.T.);
#194=EDGE_LOOP('',(#191,#193));
#195=FACE_BOUND('',#194,.F.);
#196=ADVANCED_FACE('',(#189,#195),#183,.T.);
#197=CARTESIAN_POINT('',(-7.5E1,2.95E1,0.E0));
#198=DIRECTION('',(0.E0,0.E0,1.E0));
#199=DIRECTION('',(1.E0,0.E0,0.E0));
#200=AXIS2_PLACEMENT_3D('',#197,#198,#199);
#201=CYLINDRICAL_SURFACE('',#200,1.E1);
#202=ORIENTED_EDGE('',*,*,#116,.T.);
#204=ORIENTED_EDGE('',*,*,#203,.T.);
#205=ORIENTED_EDGE('',*,*,#190,.F.);
#207=ORIENTED_EDGE('',*,*,#206,.F.);
#208=EDGE_LOOP('',(#202,#204,#205,#207));
#209=FACE_OUTER_BOUND('',#208,.F.);
#210=ADVANCED_FACE('',(#209),#201,.F.);
#211=CARTESIAN_POINT('',(-7.5E1,2.95E1,0.E0));
#212=DIRECTION('',(0.E0,0.E0,1.E0));
#213=DIRECTION('',(1.E0,0.E0,0.E0));
#214=AXIS2_PLACEMENT_3D('',#211,#212,#213);
#215=CYLINDRICAL_SURFACE('',#214,1.E1);
#216=ORIENTED_EDGE('',*,*,#118,.T.);
#217=ORIENTED_EDGE('',*,*,#206,.T.);
#218=ORIENTED_EDGE('',*,*,#192,.F.);
#219=ORIENTED_EDGE('',*,*,#203,.F.);
#220=EDGE_LOOP('',(#216,#217,#218,#219));
#221=FACE_OUTER_BOUND('',#220,.F.);
#222=ADVANCED_FACE('',(#221),#215,.F.);
#226=DIMENSIONAL_EXPONENTS(0.E0,0.E0,0.E0,0.E0,0.E0,0.E0,0.E0);
#228=PLANE_ANGLE_MEASURE_WITH_UNIT(PLANE_ANGLE_MEASURE(1.745329251994E-2),#227);
#229=(CONVERSION_BASED_UNIT('DEGREE',#228)NAMED_UNIT(*)PLANE_ANGLE_UNIT());
#231=UNCERTAINTY_MEASURE_WITH_UNIT(LENGTH_MEASURE(1.E-2),#225,'closure',
'Maximum model space distance between geometric entities at asserted connectivities');
#232=(GEOMETRIC_REPRESENTATION_CONTEXT(3)GLOBAL_UNCERTAINTY_ASSIGNED_CONTEXT((
#231))GLOBAL_UNIT_ASSIGNED_CONTEXT((#225,#229,#230))REPRESENTATION_CONTEXT
('ID1','3'));
#234=APPLICATION_CONTEXT(
'CONFIGURATION CONTROLLED 3D DESIGNS OF MECHANICAL PARTS AND ASSEMBLIES');
#235=APPLICATION_PROTOCOL_DEFINITION('international standard',
'config_control_design',1994,#234);
#236=DESIGN_CONTEXT('',#234,'design');
#237=MECHANICAL_CONTEXT('',#234,'mechanical');
#238=PRODUCT('KRAMP_ROUE_JOCKEY_FOURCHE1','KRAMP_ROUE_JOCKEY_FOURCHE1',
'NOT SPECIFIED',(#237));
#239=PRODUCT_DEFINITION_FORMATION_WITH_SPECIFIED_SOURCE('4','LAST_VERSION',#238,
.MADE.);
#243=PRODUCT_CATEGORY('part','');
#244=PRODUCT_RELATED_PRODUCT_CATEGORY('detail','',(#238));
#245=PRODUCT_CATEGORY_RELATIONSHIP('','',#243,#244);
#246=SECURITY_CLASSIFICATION_LEVEL('unclassified');
#247=SECURITY_CLASSIFICATION('','',#246);
#248=CC_DESIGN_SECURITY_CLASSIFICATION(#247,(#239));
#249=APPROVAL_STATUS('approved');
#250=APPROVAL(#249,'');
#251=CC_DESIGN_APPROVAL(#250,(#247,#239,#240));
#252=CALENDAR_DATE(121,4,5);
#253=COORDINATED_UNIVERSAL_TIME_OFFSET(2,0,.AHEAD.);
#254=LOCAL_TIME(11,14,2.1E1,#253);
#255=DATE_AND_TIME(#252,#254);
#256=APPROVAL_DATE_TIME(#255,#250);
#257=DATE_TIME_ROLE('creation_date');
#258=CC_DESIGN_DATE_AND_TIME_ASSIGNMENT(#255,#257,(#240));
#259=DATE_TIME_ROLE('classification_date');
#260=CC_DESIGN_DATE_AND_TIME_ASSIGNMENT(#255,#259,(#247));
#261=PERSON('UNSPECIFIED','UNSPECIFIED',$,$,$,$);
#262=ORGANIZATION('UNSPECIFIED','UNSPECIFIED','UNSPECIFIED');
#263=PERSON_AND_ORGANIZATION(#261,#262);
#264=APPROVAL_ROLE('approver');
#265=APPROVAL_PERSON_ORGANIZATION(#263,#250,#264);
#266=PERSON_AND_ORGANIZATION_ROLE('creator');
#267=CC_DESIGN_PERSON_AND_ORGANIZATION_ASSIGNMENT(#263,#266,(#239,#240));
#268=PERSON_AND_ORGANIZATION_ROLE('design_supplier');
#269=CC_DESIGN_PERSON_AND_ORGANIZATION_ASSIGNMENT(#263,#268,(#239));
#270=PERSON_AND_ORGANIZATION_ROLE('classification_officer');
#271=CC_DESIGN_PERSON_AND_ORGANIZATION_ASSIGNMENT(#263,#270,(#247));
#272=PERSON_AND_ORGANIZATION_ROLE('design_owner');
#273=CC_DESIGN_PERSON_AND_ORGANIZATION_ASSIGNMENT(#263,#272,(#238));
#21=CIRCLE('',#20,1.E1);
#26=CIRCLE('',#25,1.E1);
#63=CIRCLE('',#62,1.E1);
#68=CIRCLE('',#67,1.E1);
#106=EDGE_CURVE('',#79,#80,#4,.T.);
#108=EDGE_CURVE('',#80,#82,#8,.T.);
#110=EDGE_CURVE('',#82,#84,#12,.T.);
#112=EDGE_CURVE('',#84,#79,#16,.T.);
#116=EDGE_CURVE('',#95,#96,#21,.T.);
#118=EDGE_CURVE('',#96,#95,#26,.T.);
#129=EDGE_CURVE('',#79,#87,#30,.T.);
#131=EDGE_CURVE('',#87,#88,#46,.T.);
#133=EDGE_CURVE('',#80,#88,#42,.T.);
#144=EDGE_CURVE('',#84,#92,#34,.T.);
#146=EDGE_CURVE('',#92,#87,#50,.T.);
#158=EDGE_CURVE('',#82,#90,#38,.T.);
#160=EDGE_CURVE('',#90,#92,#54,.T.);
#173=EDGE_CURVE('',#88,#90,#58,.T.);
#190=EDGE_CURVE('',#99,#100,#63,.T.);
#192=EDGE_CURVE('',#100,#99,#68,.T.);
#203=EDGE_CURVE('',#96,#100,#76,.T.);
#206=EDGE_CURVE('',#95,#99,#72,.T.);
#223=CLOSED_SHELL('',(#122,#137,#151,#165,#178,#196,#210,#222));
#224=MANIFOLD_SOLID_BREP('',#223);
#225=(LENGTH_UNIT()NAMED_UNIT(*)SI_UNIT(.MILLI.,.METRE.));
#227=(NAMED_UNIT(*)PLANE_ANGLE_UNIT()SI_UNIT($,.RADIAN.));
#230=(NAMED_UNIT(*)SI_UNIT($,.STERADIAN.)SOLID_ANGLE_UNIT());
#233=ADVANCED_BREP_SHAPE_REPRESENTATION('',(#224),#232);
#240=PRODUCT_DEFINITION('design','',#239,#236);
#241=PRODUCT_DEFINITION_SHAPE('','SHAPE FOR KRAMP_ROUE_JOCKEY_FOURCHE1.',#240);
#242=SHAPE_DEFINITION_REPRESENTATION(#241,#233);
ENDSEC;
END-ISO-10303-21;
