ISO-10303-21;
HEADER;
FILE_DESCRIPTION (( 'STEP AP214' ),
    '1' );
FILE_NAME ('Bague moulinet.STEP',
    '2021-03-29T12:31:01',
    ( '' ),
    ( '' ),
    'SwSTEP 2.0',
    'SolidWorks 2020',
    '' );
FILE_SCHEMA (( 'AUTOMOTIVE_DESIGN' ));
ENDSEC;

DATA;
#1 = CARTESIAN_POINT ( 'NONE',  ( 0.5000000000000004441, 0.000000000000000000, 0.000000000000000000 ) ) ;
#2 = DIRECTION ( 'NONE',  ( 0.000000000000000000, 0.000000000000000000, -1.000000000000000000 ) ) ;
#3 = CIRCLE ( 'NONE', #250, 11.00000000000000000 ) ;
#4 = CIRCLE ( 'NONE', #201, 0.5000000000000004441 ) ;
#5 = DIRECTION ( 'NONE',  ( -1.000000000000000000, -0.000000000000000000, -0.000000000000000000 ) ) ;
#6 = CARTESIAN_POINT ( 'NONE',  ( 6.899999999999999467, 1.347111479062088405E-15, -11.00000000000000000 ) ) ;
#7 =( NAMED_UNIT ( * ) PLANE_ANGLE_UNIT ( ) SI_UNIT ( $, .RADIAN. ) );
#8 = CIRCLE ( 'NONE', #210, 10.00000000000000000 ) ;
#9 = AXIS2_PLACEMENT_3D ( 'NONE', #308, #56, #161 ) ;
#10 = CIRCLE ( 'NONE', #240, 0.5000000000000004441 ) ;
#11 = SURFACE_STYLE_FILL_AREA ( #36 ) ;
#12 = ORIENTED_EDGE ( 'NONE', *, *, #325, .T. ) ;
#13 = COLOUR_RGB ( '',0.7921568627450980005, 0.8196078431372548767, 0.9333333333333333481 ) ;
#14 = VERTEX_POINT ( 'NONE', #26 ) ;
#15 = APPLICATION_PROTOCOL_DEFINITION ( 'draft international standard', 'automotive_design', 1998, #172 ) ;
#16 = VERTEX_POINT ( 'NONE', #131 ) ;
#17 = CIRCLE ( 'NONE', #219, 0.5000000000000004441 ) ;
#18 = CARTESIAN_POINT ( 'NONE',  ( 6.899999999999999467, 0.000000000000000000, -10.49999999999999822 ) ) ;
#19 = EDGE_LOOP ( 'NONE', ( #122, #199, #106, #236 ) ) ;
#20 =( NAMED_UNIT ( * ) SI_UNIT ( $, .STERADIAN. ) SOLID_ANGLE_UNIT ( ) );
#21 = VERTEX_POINT ( 'NONE', #54 ) ;
#22 = DIRECTION ( 'NONE',  ( 0.000000000000000000, 1.224646799147353454E-16, 1.000000000000000000 ) ) ;
#23 = EDGE_LOOP ( 'NONE', ( #288, #139, #149, #123 ) ) ;
#24 = CIRCLE ( 'NONE', #212, 10.00000000000000000 ) ;
#25 = DIRECTION ( 'NONE',  ( 1.000000000000000000, 0.000000000000000000, 0.000000000000000000 ) ) ;
#26 = CARTESIAN_POINT ( 'NONE',  ( 0.000000000000000000, 1.316495309083404420E-15, 10.49999999999999822 ) ) ;
#27 = DIRECTION ( 'NONE',  ( 0.000000000000000000, 0.000000000000000000, -1.000000000000000000 ) ) ;
#28 = CARTESIAN_POINT ( 'NONE',  ( 0.5000000000000004441, 0.000000000000000000, 0.000000000000000000 ) ) ;
#29 = ADVANCED_BREP_SHAPE_REPRESENTATION ( 'Bague moulinet', ( #238, #332 ), #289 ) ;
#30 = CARTESIAN_POINT ( 'NONE',  ( 0.5000000000000004441, 0.000000000000000000, 0.000000000000000000 ) ) ;
#31 = FACE_OUTER_BOUND ( 'NONE', #96, .T. ) ;
#32 = TOROIDAL_SURFACE ( 'NONE', #109, 10.49999999999999822, 0.5000000000000000000 ) ;
#33 = CIRCLE ( 'NONE', #93, 0.5000000000000004441 ) ;
#34 = CARTESIAN_POINT ( 'NONE',  ( 0.5000000000000004441, 0.000000000000000000, 0.000000000000000000 ) ) ;
#35 = FACE_OUTER_BOUND ( 'NONE', #260, .T. ) ;
#36 = FILL_AREA_STYLE ('',( #285 ) ) ;
#37 = ORIENTED_EDGE ( 'NONE', *, *, #203, .F. ) ;
#38 = VECTOR ( 'NONE', #136, 1000.000000000000000 ) ;
#39 = CARTESIAN_POINT ( 'NONE',  ( 6.899999999999999467, 0.000000000000000000, 0.000000000000000000 ) ) ;
#40 = ORIENTED_EDGE ( 'NONE', *, *, #247, .F. ) ;
#41 = DIRECTION ( 'NONE',  ( -1.000000000000000000, -0.000000000000000000, -0.000000000000000000 ) ) ;
#42 = ORIENTED_EDGE ( 'NONE', *, *, #143, .T. ) ;
#43 = DIRECTION ( 'NONE',  ( 0.000000000000000000, 0.000000000000000000, -1.000000000000000000 ) ) ;
#44 = ORIENTED_EDGE ( 'NONE', *, *, #167, .T. ) ;
#45 = VECTOR ( 'NONE', #84, 1000.000000000000000 ) ;
#46 = ORIENTED_EDGE ( 'NONE', *, *, #85, .F. ) ;
#47 = CARTESIAN_POINT ( 'NONE',  ( 0.000000000000000000, 0.000000000000000000, 0.000000000000000000 ) ) ;
#48 = DIRECTION ( 'NONE',  ( 0.000000000000000000, 0.000000000000000000, -1.000000000000000000 ) ) ;
#49 = ADVANCED_FACE ( 'NONE', ( #323 ), #55, .T. ) ;
#50 = COLOUR_RGB ( '',0.7921568627450980005, 0.8196078431372548767, 0.9333333333333333481 ) ;
#51 = EDGE_LOOP ( 'NONE', ( #265, #227, #234, #231 ) ) ;
#52 = EDGE_CURVE ( 'NONE', #340, #245, #336, .T. ) ;
#53 = LINE ( 'NONE', #157, #45 ) ;
#54 = CARTESIAN_POINT ( 'NONE',  ( 6.899999999999999467, 0.000000000000000000, 11.00000000000000000 ) ) ;
#55 = TOROIDAL_SURFACE ( 'NONE', #80, 10.49999999999999822, 0.5000000000000000000 ) ;
#56 = DIRECTION ( 'NONE',  ( -1.000000000000000000, -0.000000000000000000, -0.000000000000000000 ) ) ;
#57 = FACE_OUTER_BOUND ( 'NONE', #168, .T. ) ;
#58 = EDGE_CURVE ( 'NONE', #14, #142, #337, .T. ) ;
#59 = CARTESIAN_POINT ( 'NONE',  ( 0.5000000000000004441, 0.000000000000000000, -10.50000000000000000 ) ) ;
#60 = DIRECTION ( 'NONE',  ( 1.000000000000000000, 0.000000000000000000, 0.000000000000000000 ) ) ;
#61 = EDGE_CURVE ( 'NONE', #14, #16, #299, .T. ) ;
#62 = AXIS2_PLACEMENT_3D ( 'NONE', #198, #319, #321 ) ;
#63 = DIRECTION ( 'NONE',  ( -1.000000000000000000, -0.000000000000000000, -0.000000000000000000 ) ) ;
#64 = ORIENTED_EDGE ( 'NONE', *, *, #167, .F. ) ;
#65 = DIRECTION ( 'NONE',  ( 0.000000000000000000, -1.000000000000000000, 0.000000000000000000 ) ) ;
#66 = ORIENTED_EDGE ( 'NONE', *, *, #79, .T. ) ;
#67 = CIRCLE ( 'NONE', #271, 11.00000000000000000 ) ;
#68 = FACE_OUTER_BOUND ( 'NONE', #293, .T. ) ;
#69 = ORIENTED_EDGE ( 'NONE', *, *, #58, .T. ) ;
#70 = DIRECTION ( 'NONE',  ( 1.000000000000000000, 0.000000000000000000, 0.000000000000000000 ) ) ;
#71 = ORIENTED_EDGE ( 'NONE', *, *, #216, .T. ) ;
#72 = FACE_OUTER_BOUND ( 'NONE', #311, .T. ) ;
#73 = ORIENTED_EDGE ( 'NONE', *, *, #143, .F. ) ;
#74 = AXIS2_PLACEMENT_3D ( 'NONE', #30, #189, #163 ) ;
#75 = APPLICATION_PROTOCOL_DEFINITION ( 'draft international standard', 'automotive_design', 1998, #191 ) ;
#76 = DIRECTION ( 'NONE',  ( 0.000000000000000000, 0.000000000000000000, -1.000000000000000000 ) ) ;
#77 =( LENGTH_UNIT ( ) NAMED_UNIT ( * ) SI_UNIT ( .MILLI., .METRE. ) );
#78 = CARTESIAN_POINT ( 'NONE',  ( 6.899999999999999467, 0.000000000000000000, 0.000000000000000000 ) ) ;
#79 = EDGE_CURVE ( 'NONE', #21, #205, #3, .T. ) ;
#80 = AXIS2_PLACEMENT_3D ( 'NONE', #187, #25, #76 ) ;
#81 = MECHANICAL_DESIGN_GEOMETRIC_PRESENTATION_REPRESENTATION (  '', ( #300 ), #276 ) ;
#82 = DIRECTION ( 'NONE',  ( 0.000000000000000000, 1.000000000000000000, -1.224646799147353207E-16 ) ) ;
#83 = AXIS2_PLACEMENT_3D ( 'NONE', #261, #95, #121 ) ;
#84 = DIRECTION ( 'NONE',  ( -1.000000000000000000, -0.000000000000000000, -0.000000000000000000 ) ) ;
#85 = EDGE_CURVE ( 'NONE', #245, #200, #355, .T. ) ;
#86 = DIRECTION ( 'NONE',  ( 0.000000000000000000, 0.000000000000000000, -1.000000000000000000 ) ) ;
#87 = CIRCLE ( 'NONE', #171, 0.5000000000000004441 ) ;
#88 = AXIS2_PLACEMENT_3D ( 'NONE', #173, #41, #292 ) ;
#89 = CARTESIAN_POINT ( 'NONE',  ( 0.5000000000000004441, 0.000000000000000000, 0.000000000000000000 ) ) ;
#90 = ADVANCED_FACE ( 'NONE', ( #241 ), #32, .T. ) ;
#91 = PRODUCT ( 'Bague moulinet', 'Bague moulinet', '', ( #243 ) ) ;
#92 =( LENGTH_UNIT ( ) NAMED_UNIT ( * ) SI_UNIT ( .MILLI., .METRE. ) );
#93 = AXIS2_PLACEMENT_3D ( 'NONE', #18, #65, #204 ) ;
#94 = ORIENTED_EDGE ( 'NONE', *, *, #259, .F. ) ;
#95 = DIRECTION ( 'NONE',  ( 1.000000000000000000, 0.000000000000000000, 0.000000000000000000 ) ) ;
#96 = EDGE_LOOP ( 'NONE', ( #316, #353, #320, #267 ) ) ;
#97 = DIRECTION ( 'NONE',  ( 1.000000000000000000, 0.000000000000000000, 0.000000000000000000 ) ) ;
#98 = ORIENTED_EDGE ( 'NONE', *, *, #252, .T. ) ;
#99 = AXIS2_PLACEMENT_3D ( 'NONE', #1, #135, #307 ) ;
#100 = CARTESIAN_POINT ( 'NONE',  ( 6.899999999999999467, 1.285879139104720633E-15, 10.49999999999999822 ) ) ;
#101 = ORIENTED_EDGE ( 'NONE', *, *, #195, .F. ) ;
#102 = MECHANICAL_DESIGN_GEOMETRIC_PRESENTATION_REPRESENTATION (  '', ( #303 ), #150 ) ;
#103 = DIRECTION ( 'NONE',  ( 0.000000000000000000, 1.000000000000000000, -1.224646799147353207E-16 ) ) ;
#104 = ORIENTED_EDGE ( 'NONE', *, *, #242, .T. ) ;
#105 = AXIS2_PLACEMENT_3D ( 'NONE', #162, #138, #116 ) ;
#106 = ORIENTED_EDGE ( 'NONE', *, *, #278, .T. ) ;
#107 = DIRECTION ( 'NONE',  ( 1.000000000000000000, 0.000000000000000000, 0.000000000000000000 ) ) ;
#108 = DIRECTION ( 'NONE',  ( 0.000000000000000000, 0.000000000000000000, -1.000000000000000000 ) ) ;
#109 = AXIS2_PLACEMENT_3D ( 'NONE', #214, #324, #274 ) ;
#110 = DIRECTION ( 'NONE',  ( -1.000000000000000000, -0.000000000000000000, -0.000000000000000000 ) ) ;
#111 =( NAMED_UNIT ( * ) SI_UNIT ( $, .STERADIAN. ) SOLID_ANGLE_UNIT ( ) );
#112 = PRODUCT_DEFINITION ( 'UNKNOWN', '', #181, #152 ) ;
#113 = CARTESIAN_POINT ( 'NONE',  ( 0.5000000000000004441, 0.000000000000000000, -10.49999999999999822 ) ) ;
#114 = CARTESIAN_POINT ( 'NONE',  ( 7.400000000000000355, 1.347111479062088405E-15, -11.00000000000000000 ) ) ;
#115 = ADVANCED_FACE ( 'NONE', ( #153 ), #281, .T. ) ;
#116 = DIRECTION ( 'NONE',  ( 0.000000000000000000, 0.000000000000000000, -1.000000000000000000 ) ) ;
#117 = ADVANCED_FACE ( 'NONE', ( #221 ), #328, .T. ) ;
#118 = SURFACE_STYLE_USAGE ( .BOTH. , #165 ) ;
#119 = SURFACE_SIDE_STYLE ('',( #11 ) ) ;
#120 = ORIENTED_EDGE ( 'NONE', *, *, #242, .F. ) ;
#121 = DIRECTION ( 'NONE',  ( 0.000000000000000000, 0.000000000000000000, -1.000000000000000000 ) ) ;
#122 = ORIENTED_EDGE ( 'NONE', *, *, #252, .F. ) ;
#123 = ORIENTED_EDGE ( 'NONE', *, *, #266, .F. ) ;
#124 = AXIS2_PLACEMENT_3D ( 'NONE', #78, #239, #359 ) ;
#125 = EDGE_CURVE ( 'NONE', #200, #14, #17, .T. ) ;
#126 = ORIENTED_EDGE ( 'NONE', *, *, #232, .T. ) ;
#127 = CARTESIAN_POINT ( 'NONE',  ( 7.400000000000000355, 0.000000000000000000, 0.000000000000000000 ) ) ;
#128 = CLOSED_SHELL ( 'NONE', ( #318, #115, #345, #90, #140, #130, #360, #220, #117, #176, #275, #49 ) ) ;
#129 = DIRECTION ( 'NONE',  ( 1.000000000000000000, 0.000000000000000000, 0.000000000000000000 ) ) ;
#130 = ADVANCED_FACE ( 'NONE', ( #217 ), #326, .T. ) ;
#131 = CARTESIAN_POINT ( 'NONE',  ( 0.5000000000000004441, 0.000000000000000000, 11.00000000000000000 ) ) ;
#132 = DIRECTION ( 'NONE',  ( 0.000000000000000000, 0.000000000000000000, 1.000000000000000000 ) ) ;
#133 = AXIS2_PLACEMENT_3D ( 'NONE', #89, #333, #192 ) ;
#134 = CIRCLE ( 'NONE', #339, 10.00000000000000000 ) ;
#135 = DIRECTION ( 'NONE',  ( -1.000000000000000000, -0.000000000000000000, -0.000000000000000000 ) ) ;
#136 = DIRECTION ( 'NONE',  ( -1.000000000000000000, -0.000000000000000000, -0.000000000000000000 ) ) ;
#137 = DIRECTION ( 'NONE',  ( 0.000000000000000000, 0.000000000000000000, 1.000000000000000000 ) ) ;
#138 = DIRECTION ( 'NONE',  ( -1.000000000000000000, -0.000000000000000000, -0.000000000000000000 ) ) ;
#139 = ORIENTED_EDGE ( 'NONE', *, *, #158, .F. ) ;
#140 = ADVANCED_FACE ( 'NONE', ( #268 ), #327, .F. ) ;
#141 = CARTESIAN_POINT ( 'NONE',  ( 7.400000000000000355, 1.285879139104720831E-15, 10.50000000000000000 ) ) ;
#142 = VERTEX_POINT ( 'NONE', #302 ) ;
#143 = EDGE_CURVE ( 'NONE', #21, #16, #53, .T. ) ;
#144 = ORIENTED_EDGE ( 'NONE', *, *, #61, .F. ) ;
#145 = CARTESIAN_POINT ( 'NONE',  ( 6.899999999999999467, 0.000000000000000000, 0.000000000000000000 ) ) ;
#146 = EDGE_LOOP ( 'NONE', ( #184, #44, #178, #46 ) ) ;
#147 = AXIS2_PLACEMENT_3D ( 'NONE', #237, #209, #132 ) ;
#148 = AXIS2_PLACEMENT_3D ( 'NONE', #169, #97, #290 ) ;
#149 = ORIENTED_EDGE ( 'NONE', *, *, #259, .T. ) ;
#150 =( GEOMETRIC_REPRESENTATION_CONTEXT ( 3 ) GLOBAL_UNCERTAINTY_ASSIGNED_CONTEXT ( ( #296 ) ) GLOBAL_UNIT_ASSIGNED_CONTEXT ( ( #77, #156, #20 ) ) REPRESENTATION_CONTEXT ( 'NONE', 'WORKASPACE' ) );
#151 = DIRECTION ( 'NONE',  ( 0.000000000000000000, 1.000000000000000000, -1.224646799147353207E-16 ) ) ;
#152 = PRODUCT_DEFINITION_CONTEXT ( 'detailed design', #191, 'design' ) ;
#153 = FACE_OUTER_BOUND ( 'NONE', #342, .T. ) ;
#154 = CIRCLE ( 'NONE', #99, 10.00000000000000000 ) ;
#155 = DIRECTION ( 'NONE',  ( 0.000000000000000000, 0.000000000000000000, 1.000000000000000000 ) ) ;
#156 =( NAMED_UNIT ( * ) PLANE_ANGLE_UNIT ( ) SI_UNIT ( $, .RADIAN. ) );
#157 = CARTESIAN_POINT ( 'NONE',  ( 7.400000000000000355, 0.000000000000000000, 11.00000000000000000 ) ) ;
#158 = EDGE_CURVE ( 'NONE', #286, #340, #329, .T. ) ;
#159 = CARTESIAN_POINT ( 'NONE',  ( 7.400000000000000355, 0.000000000000000000, 0.000000000000000000 ) ) ;
#160 = VECTOR ( 'NONE', #194, 1000.000000000000000 ) ;
#161 = DIRECTION ( 'NONE',  ( 0.000000000000000000, 0.000000000000000000, -1.000000000000000000 ) ) ;
#162 = CARTESIAN_POINT ( 'NONE',  ( 0.000000000000000000, 0.000000000000000000, 0.000000000000000000 ) ) ;
#163 = DIRECTION ( 'NONE',  ( 0.000000000000000000, 0.000000000000000000, -1.000000000000000000 ) ) ;
#164 = AXIS2_PLACEMENT_3D ( 'NONE', #180, #107, #108 ) ;
#165 = SURFACE_SIDE_STYLE ('',( #248 ) ) ;
#166 =( NAMED_UNIT ( * ) PLANE_ANGLE_UNIT ( ) SI_UNIT ( $, .RADIAN. ) );
#167 = EDGE_CURVE ( 'NONE', #177, #314, #283, .T. ) ;
#168 = EDGE_LOOP ( 'NONE', ( #64, #12, #295, #229 ) ) ;
#169 = CARTESIAN_POINT ( 'NONE',  ( 6.899999999999999467, 0.000000000000000000, 0.000000000000000000 ) ) ;
#170 = ORIENTED_EDGE ( 'NONE', *, *, #52, .T. ) ;
#171 = AXIS2_PLACEMENT_3D ( 'NONE', #59, #277, #27 ) ;
#172 = APPLICATION_CONTEXT ( 'automotive_design' ) ;
#173 = CARTESIAN_POINT ( 'NONE',  ( 7.400000000000000355, 0.000000000000000000, 0.000000000000000000 ) ) ;
#174 = ORIENTED_EDGE ( 'NONE', *, *, #186, .F. ) ;
#175 = DIRECTION ( 'NONE',  ( 0.000000000000000000, 0.000000000000000000, -1.000000000000000000 ) ) ;
#176 = ADVANCED_FACE ( 'NONE', ( #31 ), #222, .T. ) ;
#177 = VERTEX_POINT ( 'NONE', #246 ) ;
#178 = ORIENTED_EDGE ( 'NONE', *, *, #224, .T. ) ;
#179 = TOROIDAL_SURFACE ( 'NONE', #356, 10.50000000000000000, 0.5000000000000000000 ) ;
#180 = CARTESIAN_POINT ( 'NONE',  ( 0.5000000000000004441, 0.000000000000000000, 0.000000000000000000 ) ) ;
#181 = PRODUCT_DEFINITION_FORMATION_WITH_SPECIFIED_SOURCE ( 'ANY', '', #91, .NOT_KNOWN. ) ;
#182 = EDGE_CURVE ( 'NONE', #205, #257, #280, .T. ) ;
#183 = CARTESIAN_POINT ( 'NONE',  ( 0.000000000000000000, 0.000000000000000000, 0.000000000000000000 ) ) ;
#184 = ORIENTED_EDGE ( 'NONE', *, *, #266, .T. ) ;
#185 = DIRECTION ( 'NONE',  ( -1.000000000000000000, -0.000000000000000000, -0.000000000000000000 ) ) ;
#186 = EDGE_CURVE ( 'NONE', #200, #314, #8, .T. ) ;
#187 = CARTESIAN_POINT ( 'NONE',  ( 6.899999999999999467, 0.000000000000000000, 0.000000000000000000 ) ) ;
#188 = DIRECTION ( 'NONE',  ( 0.000000000000000000, 0.000000000000000000, -1.000000000000000000 ) ) ;
#189 = DIRECTION ( 'NONE',  ( 1.000000000000000000, 0.000000000000000000, 0.000000000000000000 ) ) ;
#190 = DIRECTION ( 'NONE',  ( 0.000000000000000000, 0.000000000000000000, -1.000000000000000000 ) ) ;
#191 = APPLICATION_CONTEXT ( 'automotive_design' ) ;
#192 = DIRECTION ( 'NONE',  ( 0.000000000000000000, 0.000000000000000000, -1.000000000000000000 ) ) ;
#193 = DIRECTION ( 'NONE',  ( -1.000000000000000000, -0.000000000000000000, -0.000000000000000000 ) ) ;
#194 = DIRECTION ( 'NONE',  ( -1.000000000000000000, -0.000000000000000000, -0.000000000000000000 ) ) ;
#195 = EDGE_CURVE ( 'NONE', #142, #14, #256, .T. ) ;
#196 =( NAMED_UNIT ( * ) SI_UNIT ( $, .STERADIAN. ) SOLID_ANGLE_UNIT ( ) );
#197 = ORIENTED_EDGE ( 'NONE', *, *, #247, .T. ) ;
#198 = CARTESIAN_POINT ( 'NONE',  ( 6.899999999999999467, 0.000000000000000000, 0.000000000000000000 ) ) ;
#199 = ORIENTED_EDGE ( 'NONE', *, *, #312, .F. ) ;
#200 = VERTEX_POINT ( 'NONE', #253 ) ;
#201 = AXIS2_PLACEMENT_3D ( 'NONE', #113, #334, #335 ) ;
#202 = CIRCLE ( 'NONE', #62, 11.00000000000000000 ) ;
#203 = EDGE_CURVE ( 'NONE', #314, #142, #87, .T. ) ;
#204 = DIRECTION ( 'NONE',  ( 0.000000000000000000, 0.000000000000000000, -1.000000000000000000 ) ) ;
#205 = VERTEX_POINT ( 'NONE', #6 ) ;
#206 = UNCERTAINTY_MEASURE_WITH_UNIT (LENGTH_MEASURE( 1.000000000000000082E-05 ), #92, 'distance_accuracy_value', 'NONE');
#207 = DIRECTION ( 'NONE',  ( 0.000000000000000000, 1.224646799147353454E-16, 1.000000000000000000 ) ) ;
#208 = ORIENTED_EDGE ( 'NONE', *, *, #79, .F. ) ;
#209 = DIRECTION ( 'NONE',  ( -1.000000000000000000, -0.000000000000000000, -0.000000000000000000 ) ) ;
#210 = AXIS2_PLACEMENT_3D ( 'NONE', #34, #5, #190 ) ;
#211 = CIRCLE ( 'NONE', #282, 0.5000000000000004441 ) ;
#212 = AXIS2_PLACEMENT_3D ( 'NONE', #145, #70, #287 ) ;
#213 = PRESENTATION_STYLE_ASSIGNMENT (( #228 ) ) ;
#214 = CARTESIAN_POINT ( 'NONE',  ( 0.5000000000000004441, 0.000000000000000000, 0.000000000000000000 ) ) ;
#215 = PRESENTATION_LAYER_ASSIGNMENT (  '', '', ( #303 ) ) ;
#216 = EDGE_CURVE ( 'NONE', #257, #16, #67, .T. ) ;
#217 = FACE_OUTER_BOUND ( 'NONE', #294, .T. ) ;
#218 = ORIENTED_EDGE ( 'NONE', *, *, #125, .T. ) ;
#219 = AXIS2_PLACEMENT_3D ( 'NONE', #269, #151, #331 ) ;
#220 = ADVANCED_FACE ( 'NONE', ( #57 ), #223, .F. ) ;
#221 = FACE_OUTER_BOUND ( 'NONE', #322, .T. ) ;
#222 = TOROIDAL_SURFACE ( 'NONE', #74, 10.50000000000000000, 0.5000000000000000000 ) ;
#223 = CYLINDRICAL_SURFACE ( 'NONE', #315, 10.00000000000000000 ) ;
#224 = EDGE_CURVE ( 'NONE', #314, #200, #154, .T. ) ;
#225 = PRESENTATION_STYLE_ASSIGNMENT (( #118 ) ) ;
#226 = AXIS2_PLACEMENT_3D ( 'NONE', #127, #298, #155 ) ;
#227 = ORIENTED_EDGE ( 'NONE', *, *, #61, .T. ) ;
#228 = SURFACE_STYLE_USAGE ( .BOTH. , #119 ) ;
#229 = ORIENTED_EDGE ( 'NONE', *, *, #186, .T. ) ;
#230 = CARTESIAN_POINT ( 'NONE',  ( 7.400000000000000355, 0.000000000000000000, -10.50000000000000000 ) ) ;
#231 = ORIENTED_EDGE ( 'NONE', *, *, #232, .F. ) ;
#232 = EDGE_CURVE ( 'NONE', #142, #257, #4, .T. ) ;
#233 = CARTESIAN_POINT ( 'NONE',  ( 6.899999999999999467, 0.000000000000000000, -10.50000000000000000 ) ) ;
#234 = ORIENTED_EDGE ( 'NONE', *, *, #216, .F. ) ;
#235 = CARTESIAN_POINT ( 'NONE',  ( 0.5000000000000004441, 0.000000000000000000, 0.000000000000000000 ) ) ;
#236 = ORIENTED_EDGE ( 'NONE', *, *, #158, .T. ) ;
#237 = CARTESIAN_POINT ( 'NONE',  ( 7.400000000000000355, 0.000000000000000000, 0.000000000000000000 ) ) ;
#238 = MANIFOLD_SOLID_BREP ( 'Congé1', #128 ) ;
#239 = DIRECTION ( 'NONE',  ( 1.000000000000000000, 0.000000000000000000, 0.000000000000000000 ) ) ;
#240 = AXIS2_PLACEMENT_3D ( 'NONE', #233, #264, #43 ) ;
#241 = FACE_OUTER_BOUND ( 'NONE', #51, .T. ) ;
#242 = EDGE_CURVE ( 'NONE', #16, #257, #349, .T. ) ;
#243 = PRODUCT_CONTEXT ( 'NONE', #172, 'mechanical' ) ;
#244 = CARTESIAN_POINT ( 'NONE',  ( 7.400000000000000355, 0.000000000000000000, 10.00000000000000000 ) ) ;
#245 = VERTEX_POINT ( 'NONE', #305 ) ;
#246 = CARTESIAN_POINT ( 'NONE',  ( 6.899999999999999467, 1.224646799147353256E-15, -10.00000000000000000 ) ) ;
#247 = EDGE_CURVE ( 'NONE', #340, #286, #338, .T. ) ;
#248 = SURFACE_STYLE_FILL_AREA ( #309 ) ;
#249 = CARTESIAN_POINT ( 'NONE',  ( 7.400000000000000355, 1.224646799147353256E-15, -10.00000000000000000 ) ) ;
#250 = AXIS2_PLACEMENT_3D ( 'NONE', #361, #185, #188 ) ;
#251 = FILL_AREA_STYLE_COLOUR ( '', #50 ) ;
#252 = EDGE_CURVE ( 'NONE', #21, #340, #211, .T. ) ;
#253 = CARTESIAN_POINT ( 'NONE',  ( 0.5000000000000004441, 0.000000000000000000, 10.00000000000000000 ) ) ;
#254 =( LENGTH_UNIT ( ) NAMED_UNIT ( * ) SI_UNIT ( .MILLI., .METRE. ) );
#255 = AXIS2_PLACEMENT_3D ( 'NONE', #47, #304, #48 ) ;
#256 = CIRCLE ( 'NONE', #105, 10.49999999999999822 ) ;
#257 = VERTEX_POINT ( 'NONE', #341 ) ;
#258 = DIRECTION ( 'NONE',  ( 1.000000000000000000, 0.000000000000000000, 0.000000000000000000 ) ) ;
#259 = EDGE_CURVE ( 'NONE', #286, #177, #10, .T. ) ;
#260 = EDGE_LOOP ( 'NONE', ( #350, #262, #42, #104 ) ) ;
#261 = CARTESIAN_POINT ( 'NONE',  ( 6.899999999999999467, 0.000000000000000000, 0.000000000000000000 ) ) ;
#262 = ORIENTED_EDGE ( 'NONE', *, *, #312, .T. ) ;
#263 = PRODUCT_DEFINITION_SHAPE ( 'NONE', 'NONE',  #112 ) ;
#264 = DIRECTION ( 'NONE',  ( 0.000000000000000000, -1.000000000000000000, 0.000000000000000000 ) ) ;
#265 = ORIENTED_EDGE ( 'NONE', *, *, #58, .F. ) ;
#266 = EDGE_CURVE ( 'NONE', #245, #177, #24, .T. ) ;
#267 = ORIENTED_EDGE ( 'NONE', *, *, #195, .T. ) ;
#268 = FACE_OUTER_BOUND ( 'NONE', #146, .T. ) ;
#269 = CARTESIAN_POINT ( 'NONE',  ( 0.5000000000000004441, 1.285879139104720831E-15, 10.50000000000000000 ) ) ;
#270 = AXIS2_PLACEMENT_3D ( 'NONE', #354, #273, #357 ) ;
#271 = AXIS2_PLACEMENT_3D ( 'NONE', #28, #60, #2 ) ;
#272 = ORIENTED_EDGE ( 'NONE', *, *, #278, .F. ) ;
#273 = DIRECTION ( 'NONE',  ( 0.000000000000000000, 1.000000000000000000, -1.224646799147353207E-16 ) ) ;
#274 = DIRECTION ( 'NONE',  ( 0.000000000000000000, 0.000000000000000000, -1.000000000000000000 ) ) ;
#275 = ADVANCED_FACE ( 'NONE', ( #348 ), #317, .T. ) ;
#276 =( GEOMETRIC_REPRESENTATION_CONTEXT ( 3 ) GLOBAL_UNCERTAINTY_ASSIGNED_CONTEXT ( ( #206 ) ) GLOBAL_UNIT_ASSIGNED_CONTEXT ( ( #92, #166, #111 ) ) REPRESENTATION_CONTEXT ( 'NONE', 'WORKASPACE' ) );
#277 = DIRECTION ( 'NONE',  ( 0.000000000000000000, -1.000000000000000000, 0.000000000000000000 ) ) ;
#278 = EDGE_CURVE ( 'NONE', #205, #286, #33, .T. ) ;
#279 = CARTESIAN_POINT ( 'NONE',  ( 7.400000000000000355, 0.000000000000000000, 0.000000000000000000 ) ) ;
#280 = LINE ( 'NONE', #114, #160 ) ;
#281 = TOROIDAL_SURFACE ( 'NONE', #124, 10.50000000000000000, 0.5000000000000000000 ) ;
#282 = AXIS2_PLACEMENT_3D ( 'NONE', #100, #103, #207 ) ;
#283 = LINE ( 'NONE', #249, #38 ) ;
#284 = DIRECTION ( 'NONE',  ( 0.000000000000000000, 0.000000000000000000, -1.000000000000000000 ) ) ;
#285 = FILL_AREA_STYLE_COLOUR ( '', #13 ) ;
#286 = VERTEX_POINT ( 'NONE', #230 ) ;
#287 = DIRECTION ( 'NONE',  ( 0.000000000000000000, 0.000000000000000000, -1.000000000000000000 ) ) ;
#288 = ORIENTED_EDGE ( 'NONE', *, *, #52, .F. ) ;
#289 =( GEOMETRIC_REPRESENTATION_CONTEXT ( 3 ) GLOBAL_UNCERTAINTY_ASSIGNED_CONTEXT ( ( #358 ) ) GLOBAL_UNIT_ASSIGNED_CONTEXT ( ( #254, #7, #196 ) ) REPRESENTATION_CONTEXT ( 'NONE', 'WORKASPACE' ) );
#290 = DIRECTION ( 'NONE',  ( 0.000000000000000000, 0.000000000000000000, -1.000000000000000000 ) ) ;
#291 = ORIENTED_EDGE ( 'NONE', *, *, #182, .T. ) ;
#292 = DIRECTION ( 'NONE',  ( 0.000000000000000000, 0.000000000000000000, 1.000000000000000000 ) ) ;
#293 = EDGE_LOOP ( 'NONE', ( #208, #98, #197, #272 ) ) ;
#294 = EDGE_LOOP ( 'NONE', ( #66, #291, #71, #73 ) ) ;
#295 = ORIENTED_EDGE ( 'NONE', *, *, #85, .T. ) ;
#296 = UNCERTAINTY_MEASURE_WITH_UNIT (LENGTH_MEASURE( 1.000000000000000082E-05 ), #77, 'distance_accuracy_value', 'NONE');
#297 = CARTESIAN_POINT ( 'NONE',  ( 6.899999999999999467, 1.285879139104720831E-15, 10.50000000000000000 ) ) ;
#298 = DIRECTION ( 'NONE',  ( -1.000000000000000000, -0.000000000000000000, -0.000000000000000000 ) ) ;
#299 = CIRCLE ( 'NONE', #270, 0.5000000000000004441 ) ;
#300 = STYLED_ITEM ( 'NONE', ( #225 ), #238 ) ;
#301 = DIRECTION ( 'NONE',  ( 0.000000000000000000, 0.000000000000000000, 1.000000000000000000 ) ) ;
#302 = CARTESIAN_POINT ( 'NONE',  ( 0.000000000000000000, 0.000000000000000000, -10.49999999999999822 ) ) ;
#303 = STYLED_ITEM ( 'NONE', ( #213 ), #29 ) ;
#304 = DIRECTION ( 'NONE',  ( -1.000000000000000000, -0.000000000000000000, -0.000000000000000000 ) ) ;
#305 = CARTESIAN_POINT ( 'NONE',  ( 6.899999999999999467, 0.000000000000000000, 10.00000000000000000 ) ) ;
#306 = AXIS2_PLACEMENT_3D ( 'NONE', #159, #193, #86 ) ;
#307 = DIRECTION ( 'NONE',  ( 0.000000000000000000, 0.000000000000000000, -1.000000000000000000 ) ) ;
#308 = CARTESIAN_POINT ( 'NONE',  ( 7.400000000000000355, 0.000000000000000000, 0.000000000000000000 ) ) ;
#309 = FILL_AREA_STYLE ('',( #251 ) ) ;
#310 = TOROIDAL_SURFACE ( 'NONE', #148, 10.49999999999999822, 0.5000000000000000000 ) ;
#311 = EDGE_LOOP ( 'NONE', ( #174, #218, #69, #37 ) ) ;
#312 = EDGE_CURVE ( 'NONE', #205, #21, #202, .T. ) ;
#313 = CARTESIAN_POINT ( 'NONE',  ( 0.5000000000000004441, 1.224646799147353256E-15, -10.00000000000000000 ) ) ;
#314 = VERTEX_POINT ( 'NONE', #313 ) ;
#315 = AXIS2_PLACEMENT_3D ( 'NONE', #279, #63, #137 ) ;
#316 = ORIENTED_EDGE ( 'NONE', *, *, #125, .F. ) ;
#317 = TOROIDAL_SURFACE ( 'NONE', #83, 10.50000000000000000, 0.5000000000000000000 ) ;
#318 = ADVANCED_FACE ( 'NONE', ( #68 ), #310, .T. ) ;
#319 = DIRECTION ( 'NONE',  ( -1.000000000000000000, -0.000000000000000000, -0.000000000000000000 ) ) ;
#320 = ORIENTED_EDGE ( 'NONE', *, *, #203, .T. ) ;
#321 = DIRECTION ( 'NONE',  ( 0.000000000000000000, 0.000000000000000000, -1.000000000000000000 ) ) ;
#322 = EDGE_LOOP ( 'NONE', ( #144, #101, #126, #120 ) ) ;
#323 = FACE_OUTER_BOUND ( 'NONE', #19, .T. ) ;
#324 = DIRECTION ( 'NONE',  ( 1.000000000000000000, 0.000000000000000000, 0.000000000000000000 ) ) ;
#325 = EDGE_CURVE ( 'NONE', #177, #245, #134, .T. ) ;
#326 = CYLINDRICAL_SURFACE ( 'NONE', #147, 11.00000000000000000 ) ;
#327 = CYLINDRICAL_SURFACE ( 'NONE', #226, 10.00000000000000000 ) ;
#328 = TOROIDAL_SURFACE ( 'NONE', #164, 10.49999999999999822, 0.5000000000000000000 ) ;
#329 = CIRCLE ( 'NONE', #306, 10.50000000000000000 ) ;
#330 = SHAPE_DEFINITION_REPRESENTATION ( #263, #29 ) ;
#331 = DIRECTION ( 'NONE',  ( 0.000000000000000000, 1.224646799147353454E-16, 1.000000000000000000 ) ) ;
#332 = AXIS2_PLACEMENT_3D ( 'NONE', #183, #301, #129 ) ;
#333 = DIRECTION ( 'NONE',  ( 1.000000000000000000, 0.000000000000000000, 0.000000000000000000 ) ) ;
#334 = DIRECTION ( 'NONE',  ( 0.000000000000000000, -1.000000000000000000, 0.000000000000000000 ) ) ;
#335 = DIRECTION ( 'NONE',  ( 0.000000000000000000, 0.000000000000000000, -1.000000000000000000 ) ) ;
#336 = CIRCLE ( 'NONE', #362, 0.5000000000000004441 ) ;
#337 = CIRCLE ( 'NONE', #255, 10.49999999999999822 ) ;
#338 = CIRCLE ( 'NONE', #9, 10.50000000000000000 ) ;
#339 = AXIS2_PLACEMENT_3D ( 'NONE', #39, #258, #175 ) ;
#340 = VERTEX_POINT ( 'NONE', #141 ) ;
#341 = CARTESIAN_POINT ( 'NONE',  ( 0.5000000000000004441, 1.347111479062088405E-15, -11.00000000000000000 ) ) ;
#342 = EDGE_LOOP ( 'NONE', ( #40, #170, #344, #94 ) ) ;
#343 = CYLINDRICAL_SURFACE ( 'NONE', #88, 11.00000000000000000 ) ;
#344 = ORIENTED_EDGE ( 'NONE', *, *, #325, .F. ) ;
#345 = ADVANCED_FACE ( 'NONE', ( #72 ), #179, .T. ) ;
#346 = VECTOR ( 'NONE', #110, 1000.000000000000000 ) ;
#347 = PRESENTATION_LAYER_ASSIGNMENT (  '', '', ( #300 ) ) ;
#348 = FACE_OUTER_BOUND ( 'NONE', #23, .T. ) ;
#349 = CIRCLE ( 'NONE', #133, 11.00000000000000000 ) ;
#350 = ORIENTED_EDGE ( 'NONE', *, *, #182, .F. ) ;
#351 = PRODUCT_RELATED_PRODUCT_CATEGORY ( 'part', '', ( #91 ) ) ;
#352 = DIRECTION ( 'NONE',  ( 1.000000000000000000, 0.000000000000000000, 0.000000000000000000 ) ) ;
#353 = ORIENTED_EDGE ( 'NONE', *, *, #224, .F. ) ;
#354 = CARTESIAN_POINT ( 'NONE',  ( 0.5000000000000004441, 1.285879139104720633E-15, 10.49999999999999822 ) ) ;
#355 = LINE ( 'NONE', #244, #346 ) ;
#356 = AXIS2_PLACEMENT_3D ( 'NONE', #235, #352, #284 ) ;
#357 = DIRECTION ( 'NONE',  ( 0.000000000000000000, 1.224646799147353454E-16, 1.000000000000000000 ) ) ;
#358 = UNCERTAINTY_MEASURE_WITH_UNIT (LENGTH_MEASURE( 1.000000000000000082E-05 ), #254, 'distance_accuracy_value', 'NONE');
#359 = DIRECTION ( 'NONE',  ( 0.000000000000000000, 0.000000000000000000, -1.000000000000000000 ) ) ;
#360 = ADVANCED_FACE ( 'NONE', ( #35 ), #343, .T. ) ;
#361 = CARTESIAN_POINT ( 'NONE',  ( 6.899999999999999467, 0.000000000000000000, 0.000000000000000000 ) ) ;
#362 = AXIS2_PLACEMENT_3D ( 'NONE', #297, #82, #22 ) ;
ENDSEC;
END-ISO-10303-21;
