ISO-10303-21;
HEADER;
FILE_DESCRIPTION(
(''),
'2;1');
FILE_NAME(
'C:\part.stp',
'2000-01-01T12:00:00+0:00',
(''),
(''),
'',
'fCAD',
'');
FILE_SCHEMA (('AUTOMOTIVE_DESIGN { 1 0 10303 214 3 1 1 }'));
ENDSEC;
DATA;
#10=MECHANICAL_DESIGN_GEOMETRIC_PRESENTATION_REPRESENTATION('',(#17),#469);
#11=ITEM_DEFINED_TRANSFORMATION($,$,#293,#316);
#12=(
REPRESENTATION_RELATIONSHIP($,$,#482,#481)
REPRESENTATION_RELATIONSHIP_WITH_TRANSFORMATION(#11)
SHAPE_REPRESENTATION_RELATIONSHIP()
);
#13=CONTEXT_DEPENDENT_SHAPE_REPRESENTATION(#12,#480);
#14=NEXT_ASSEMBLY_USAGE_OCCURRENCE('brin DRNHF2-BR02:1',
'brin DRNHF2-BR02:1','brin DRNHF2-BR02:1',#484,#485,
'brin DRNHF2-BR02:1');
#15=SHAPE_REPRESENTATION_RELATIONSHIP('SRR','None',#482,#16);
#16=ADVANCED_BREP_SHAPE_REPRESENTATION('',(#18),#468);
#17=STYLED_ITEM('',(#497),#18);
#18=MANIFOLD_SOLID_BREP('Solid1',#279);
#19=LINE('',#416,#43);
#20=LINE('',#418,#44);
#21=LINE('',#420,#45);
#22=LINE('',#421,#46);
#23=LINE('',#424,#47);
#24=LINE('',#426,#48);
#25=LINE('',#427,#49);
#26=LINE('',#430,#50);
#27=LINE('',#432,#51);
#28=LINE('',#433,#52);
#29=LINE('',#435,#53);
#30=LINE('',#436,#54);
#31=LINE('',#440,#55);
#32=LINE('',#442,#56);
#33=LINE('',#444,#57);
#34=LINE('',#445,#58);
#35=LINE('',#448,#59);
#36=LINE('',#450,#60);
#37=LINE('',#451,#61);
#38=LINE('',#454,#62);
#39=LINE('',#456,#63);
#40=LINE('',#457,#64);
#41=LINE('',#459,#65);
#42=LINE('',#460,#66);
#43=VECTOR('',#347,10.);
#44=VECTOR('',#348,10.);
#45=VECTOR('',#349,10.);
#46=VECTOR('',#350,10.);
#47=VECTOR('',#353,10.);
#48=VECTOR('',#354,10.);
#49=VECTOR('',#355,10.);
#50=VECTOR('',#358,10.);
#51=VECTOR('',#359,10.);
#52=VECTOR('',#360,10.);
#53=VECTOR('',#363,10.);
#54=VECTOR('',#364,10.);
#55=VECTOR('',#367,10.);
#56=VECTOR('',#368,10.);
#57=VECTOR('',#369,10.);
#58=VECTOR('',#370,10.);
#59=VECTOR('',#373,10.);
#60=VECTOR('',#374,10.);
#61=VECTOR('',#375,10.);
#62=VECTOR('',#378,10.);
#63=VECTOR('',#379,10.);
#64=VECTOR('',#380,10.);
#65=VECTOR('',#383,10.);
#66=VECTOR('',#384,10.);
#67=PLANE('',#306);
#68=PLANE('',#307);
#69=PLANE('',#308);
#70=PLANE('',#309);
#71=PLANE('',#310);
#72=PLANE('',#311);
#73=PLANE('',#312);
#74=PLANE('',#313);
#75=PLANE('',#314);
#76=PLANE('',#315);
#77=FACE_BOUND('',#106,.T.);
#78=FACE_BOUND('',#108,.T.);
#79=FACE_BOUND('',#110,.T.);
#80=FACE_BOUND('',#112,.T.);
#81=FACE_BOUND('',#114,.T.);
#82=FACE_BOUND('',#116,.T.);
#83=FACE_BOUND('',#118,.T.);
#84=FACE_BOUND('',#120,.T.);
#85=FACE_BOUND('',#122,.T.);
#86=FACE_BOUND('',#124,.T.);
#87=FACE_BOUND('',#126,.T.);
#88=FACE_BOUND('',#128,.T.);
#89=FACE_BOUND('',#130,.T.);
#90=FACE_BOUND('',#132,.T.);
#91=FACE_OUTER_BOUND('',#105,.T.);
#92=FACE_OUTER_BOUND('',#107,.T.);
#93=FACE_OUTER_BOUND('',#109,.T.);
#94=FACE_OUTER_BOUND('',#111,.T.);
#95=FACE_OUTER_BOUND('',#113,.T.);
#96=FACE_OUTER_BOUND('',#115,.T.);
#97=FACE_OUTER_BOUND('',#117,.T.);
#98=FACE_OUTER_BOUND('',#119,.T.);
#99=FACE_OUTER_BOUND('',#121,.T.);
#100=FACE_OUTER_BOUND('',#123,.T.);
#101=FACE_OUTER_BOUND('',#125,.T.);
#102=FACE_OUTER_BOUND('',#127,.T.);
#103=FACE_OUTER_BOUND('',#129,.T.);
#104=FACE_OUTER_BOUND('',#131,.T.);
#105=EDGE_LOOP('',(#197));
#106=EDGE_LOOP('',(#198));
#107=EDGE_LOOP('',(#199));
#108=EDGE_LOOP('',(#200));
#109=EDGE_LOOP('',(#201));
#110=EDGE_LOOP('',(#202));
#111=EDGE_LOOP('',(#203));
#112=EDGE_LOOP('',(#204));
#113=EDGE_LOOP('',(#205,#206,#207,#208));
#114=EDGE_LOOP('',(#209));
#115=EDGE_LOOP('',(#210,#211,#212,#213));
#116=EDGE_LOOP('',(#214));
#117=EDGE_LOOP('',(#215,#216,#217,#218));
#118=EDGE_LOOP('',(#219));
#119=EDGE_LOOP('',(#220,#221,#222,#223));
#120=EDGE_LOOP('',(#224));
#121=EDGE_LOOP('',(#225,#226,#227,#228));
#122=EDGE_LOOP('',(#229));
#123=EDGE_LOOP('',(#230,#231,#232,#233));
#124=EDGE_LOOP('',(#234));
#125=EDGE_LOOP('',(#235,#236,#237,#238));
#126=EDGE_LOOP('',(#239));
#127=EDGE_LOOP('',(#240,#241,#242,#243));
#128=EDGE_LOOP('',(#244));
#129=EDGE_LOOP('',(#245,#246,#247,#248));
#130=EDGE_LOOP('',(#249,#250,#251,#252));
#131=EDGE_LOOP('',(#253,#254,#255,#256));
#132=EDGE_LOOP('',(#257,#258,#259,#260));
#133=CIRCLE('',#295,3.5);
#134=CIRCLE('',#296,3.5);
#135=CIRCLE('',#298,3.5);
#136=CIRCLE('',#299,3.5);
#137=CIRCLE('',#301,3.5);
#138=CIRCLE('',#302,3.5);
#139=CIRCLE('',#304,3.5);
#140=CIRCLE('',#305,3.5);
#141=VERTEX_POINT('',#394);
#142=VERTEX_POINT('',#396);
#143=VERTEX_POINT('',#399);
#144=VERTEX_POINT('',#401);
#145=VERTEX_POINT('',#404);
#146=VERTEX_POINT('',#406);
#147=VERTEX_POINT('',#409);
#148=VERTEX_POINT('',#411);
#149=VERTEX_POINT('',#414);
#150=VERTEX_POINT('',#415);
#151=VERTEX_POINT('',#417);
#152=VERTEX_POINT('',#419);
#153=VERTEX_POINT('',#423);
#154=VERTEX_POINT('',#425);
#155=VERTEX_POINT('',#429);
#156=VERTEX_POINT('',#431);
#157=VERTEX_POINT('',#438);
#158=VERTEX_POINT('',#439);
#159=VERTEX_POINT('',#441);
#160=VERTEX_POINT('',#443);
#161=VERTEX_POINT('',#447);
#162=VERTEX_POINT('',#449);
#163=VERTEX_POINT('',#453);
#164=VERTEX_POINT('',#455);
#165=EDGE_CURVE('',#141,#141,#133,.T.);
#166=EDGE_CURVE('',#142,#142,#134,.T.);
#167=EDGE_CURVE('',#143,#143,#135,.T.);
#168=EDGE_CURVE('',#144,#144,#136,.T.);
#169=EDGE_CURVE('',#145,#145,#137,.T.);
#170=EDGE_CURVE('',#146,#146,#138,.T.);
#171=EDGE_CURVE('',#147,#147,#139,.T.);
#172=EDGE_CURVE('',#148,#148,#140,.T.);
#173=EDGE_CURVE('',#149,#150,#19,.T.);
#174=EDGE_CURVE('',#151,#149,#20,.T.);
#175=EDGE_CURVE('',#152,#151,#21,.T.);
#176=EDGE_CURVE('',#152,#150,#22,.T.);
#177=EDGE_CURVE('',#150,#153,#23,.T.);
#178=EDGE_CURVE('',#154,#152,#24,.T.);
#179=EDGE_CURVE('',#154,#153,#25,.T.);
#180=EDGE_CURVE('',#153,#155,#26,.T.);
#181=EDGE_CURVE('',#156,#154,#27,.T.);
#182=EDGE_CURVE('',#156,#155,#28,.T.);
#183=EDGE_CURVE('',#155,#149,#29,.T.);
#184=EDGE_CURVE('',#151,#156,#30,.T.);
#185=EDGE_CURVE('',#157,#158,#31,.T.);
#186=EDGE_CURVE('',#159,#158,#32,.T.);
#187=EDGE_CURVE('',#160,#159,#33,.T.);
#188=EDGE_CURVE('',#160,#157,#34,.T.);
#189=EDGE_CURVE('',#158,#161,#35,.T.);
#190=EDGE_CURVE('',#162,#161,#36,.T.);
#191=EDGE_CURVE('',#159,#162,#37,.T.);
#192=EDGE_CURVE('',#161,#163,#38,.T.);
#193=EDGE_CURVE('',#164,#163,#39,.T.);
#194=EDGE_CURVE('',#162,#164,#40,.T.);
#195=EDGE_CURVE('',#163,#157,#41,.T.);
#196=EDGE_CURVE('',#164,#160,#42,.T.);
#197=ORIENTED_EDGE('',*,*,#165,.F.);
#198=ORIENTED_EDGE('',*,*,#166,.F.);
#199=ORIENTED_EDGE('',*,*,#167,.F.);
#200=ORIENTED_EDGE('',*,*,#168,.F.);
#201=ORIENTED_EDGE('',*,*,#169,.F.);
#202=ORIENTED_EDGE('',*,*,#170,.F.);
#203=ORIENTED_EDGE('',*,*,#171,.F.);
#204=ORIENTED_EDGE('',*,*,#172,.F.);
#205=ORIENTED_EDGE('',*,*,#173,.F.);
#206=ORIENTED_EDGE('',*,*,#174,.F.);
#207=ORIENTED_EDGE('',*,*,#175,.F.);
#208=ORIENTED_EDGE('',*,*,#176,.T.);
#209=ORIENTED_EDGE('',*,*,#167,.T.);
#210=ORIENTED_EDGE('',*,*,#177,.F.);
#211=ORIENTED_EDGE('',*,*,#176,.F.);
#212=ORIENTED_EDGE('',*,*,#178,.F.);
#213=ORIENTED_EDGE('',*,*,#179,.T.);
#214=ORIENTED_EDGE('',*,*,#171,.T.);
#215=ORIENTED_EDGE('',*,*,#180,.F.);
#216=ORIENTED_EDGE('',*,*,#179,.F.);
#217=ORIENTED_EDGE('',*,*,#181,.F.);
#218=ORIENTED_EDGE('',*,*,#182,.T.);
#219=ORIENTED_EDGE('',*,*,#166,.T.);
#220=ORIENTED_EDGE('',*,*,#183,.F.);
#221=ORIENTED_EDGE('',*,*,#182,.F.);
#222=ORIENTED_EDGE('',*,*,#184,.F.);
#223=ORIENTED_EDGE('',*,*,#174,.T.);
#224=ORIENTED_EDGE('',*,*,#170,.T.);
#225=ORIENTED_EDGE('',*,*,#185,.T.);
#226=ORIENTED_EDGE('',*,*,#186,.F.);
#227=ORIENTED_EDGE('',*,*,#187,.F.);
#228=ORIENTED_EDGE('',*,*,#188,.T.);
#229=ORIENTED_EDGE('',*,*,#168,.T.);
#230=ORIENTED_EDGE('',*,*,#189,.T.);
#231=ORIENTED_EDGE('',*,*,#190,.F.);
#232=ORIENTED_EDGE('',*,*,#191,.F.);
#233=ORIENTED_EDGE('',*,*,#186,.T.);
#234=ORIENTED_EDGE('',*,*,#172,.T.);
#235=ORIENTED_EDGE('',*,*,#192,.T.);
#236=ORIENTED_EDGE('',*,*,#193,.F.);
#237=ORIENTED_EDGE('',*,*,#194,.F.);
#238=ORIENTED_EDGE('',*,*,#190,.T.);
#239=ORIENTED_EDGE('',*,*,#165,.T.);
#240=ORIENTED_EDGE('',*,*,#195,.T.);
#241=ORIENTED_EDGE('',*,*,#188,.F.);
#242=ORIENTED_EDGE('',*,*,#196,.F.);
#243=ORIENTED_EDGE('',*,*,#193,.T.);
#244=ORIENTED_EDGE('',*,*,#169,.T.);
#245=ORIENTED_EDGE('',*,*,#185,.F.);
#246=ORIENTED_EDGE('',*,*,#195,.F.);
#247=ORIENTED_EDGE('',*,*,#192,.F.);
#248=ORIENTED_EDGE('',*,*,#189,.F.);
#249=ORIENTED_EDGE('',*,*,#173,.T.);
#250=ORIENTED_EDGE('',*,*,#177,.T.);
#251=ORIENTED_EDGE('',*,*,#180,.T.);
#252=ORIENTED_EDGE('',*,*,#183,.T.);
#253=ORIENTED_EDGE('',*,*,#196,.T.);
#254=ORIENTED_EDGE('',*,*,#187,.T.);
#255=ORIENTED_EDGE('',*,*,#191,.T.);
#256=ORIENTED_EDGE('',*,*,#194,.T.);
#257=ORIENTED_EDGE('',*,*,#175,.T.);
#258=ORIENTED_EDGE('',*,*,#184,.T.);
#259=ORIENTED_EDGE('',*,*,#181,.T.);
#260=ORIENTED_EDGE('',*,*,#178,.T.);
#261=CYLINDRICAL_SURFACE('',#294,3.5);
#262=CYLINDRICAL_SURFACE('',#297,3.5);
#263=CYLINDRICAL_SURFACE('',#300,3.5);
#264=CYLINDRICAL_SURFACE('',#303,3.5);
#265=ADVANCED_FACE('',(#91,#77),#261,.F.);
#266=ADVANCED_FACE('',(#92,#78),#262,.F.);
#267=ADVANCED_FACE('',(#93,#79),#263,.F.);
#268=ADVANCED_FACE('',(#94,#80),#264,.F.);
#269=ADVANCED_FACE('',(#95,#81),#67,.F.);
#270=ADVANCED_FACE('',(#96,#82),#68,.F.);
#271=ADVANCED_FACE('',(#97,#83),#69,.F.);
#272=ADVANCED_FACE('',(#98,#84),#70,.F.);
#273=ADVANCED_FACE('',(#99,#85),#71,.T.);
#274=ADVANCED_FACE('',(#100,#86),#72,.T.);
#275=ADVANCED_FACE('',(#101,#87),#73,.T.);
#276=ADVANCED_FACE('',(#102,#88),#74,.T.);
#277=ADVANCED_FACE('',(#103,#89),#75,.T.);
#278=ADVANCED_FACE('',(#104,#90),#76,.F.);
#279=CLOSED_SHELL('',(#265,#266,#267,#268,#269,#270,#271,#272,#273,#274,
#275,#276,#277,#278));
#280=DATE_TIME_ROLE('creation_date');
#281=DATE_TIME_ROLE('creation_date');
#282=APPLIED_DATE_AND_TIME_ASSIGNMENT(#284,#280,(#484));
#283=APPLIED_DATE_AND_TIME_ASSIGNMENT(#285,#281,(#485));
#284=DATE_AND_TIME(#286,#288);
#285=DATE_AND_TIME(#287,#289);
#286=CALENDAR_DATE(2011,1,5);
#287=CALENDAR_DATE(2011,8,5);
#288=LOCAL_TIME(14,36,50.,#290);
#289=LOCAL_TIME(11,0,52.,#291);
#290=COORDINATED_UNIVERSAL_TIME_OFFSET(0,0,.BEHIND.);
#291=COORDINATED_UNIVERSAL_TIME_OFFSET(0,0,.BEHIND.);
#292=AXIS2_PLACEMENT_3D('placement',#391,#317,#318);
#293=AXIS2_PLACEMENT_3D('placement',#392,#319,#320);
#294=AXIS2_PLACEMENT_3D('',#393,#321,#322);
#295=AXIS2_PLACEMENT_3D('',#395,#323,#324);
#296=AXIS2_PLACEMENT_3D('',#397,#325,#326);
#297=AXIS2_PLACEMENT_3D('',#398,#327,#328);
#298=AXIS2_PLACEMENT_3D('',#400,#329,#330);
#299=AXIS2_PLACEMENT_3D('',#402,#331,#332);
#300=AXIS2_PLACEMENT_3D('',#403,#333,#334);
#301=AXIS2_PLACEMENT_3D('',#405,#335,#336);
#302=AXIS2_PLACEMENT_3D('',#407,#337,#338);
#303=AXIS2_PLACEMENT_3D('',#408,#339,#340);
#304=AXIS2_PLACEMENT_3D('',#410,#341,#342);
#305=AXIS2_PLACEMENT_3D('',#412,#343,#344);
#306=AXIS2_PLACEMENT_3D('',#413,#345,#346);
#307=AXIS2_PLACEMENT_3D('',#422,#351,#352);
#308=AXIS2_PLACEMENT_3D('',#428,#356,#357);
#309=AXIS2_PLACEMENT_3D('',#434,#361,#362);
#310=AXIS2_PLACEMENT_3D('',#437,#365,#366);
#311=AXIS2_PLACEMENT_3D('',#446,#371,#372);
#312=AXIS2_PLACEMENT_3D('',#452,#376,#377);
#313=AXIS2_PLACEMENT_3D('',#458,#381,#382);
#314=AXIS2_PLACEMENT_3D('',#461,#385,#386);
#315=AXIS2_PLACEMENT_3D('',#462,#387,#388);
#316=AXIS2_PLACEMENT_3D('',#463,#389,#390);
#317=DIRECTION('axis',(0.,0.,1.));
#318=DIRECTION('refdir',(1.,0.,0.));
#319=DIRECTION('axis',(0.,0.,1.));
#320=DIRECTION('refdir',(1.,0.,0.));
#321=DIRECTION('center_axis',(-1.,0.,0.));
#322=DIRECTION('ref_axis',(0.,0.,1.));
#323=DIRECTION('center_axis',(1.,0.,0.));
#324=DIRECTION('ref_axis',(0.,0.,1.));
#325=DIRECTION('center_axis',(-1.,0.,0.));
#326=DIRECTION('ref_axis',(0.,0.,1.));
#327=DIRECTION('center_axis',(-1.,0.,0.));
#328=DIRECTION('ref_axis',(0.,0.,1.));
#329=DIRECTION('center_axis',(1.,0.,0.));
#330=DIRECTION('ref_axis',(0.,0.,1.));
#331=DIRECTION('center_axis',(-1.,0.,0.));
#332=DIRECTION('ref_axis',(0.,0.,1.));
#333=DIRECTION('center_axis',(0.,1.,0.));
#334=DIRECTION('ref_axis',(1.,0.,0.));
#335=DIRECTION('center_axis',(0.,-1.,0.));
#336=DIRECTION('ref_axis',(1.,0.,0.));
#337=DIRECTION('center_axis',(0.,1.,0.));
#338=DIRECTION('ref_axis',(1.,0.,0.));
#339=DIRECTION('center_axis',(0.,1.,0.));
#340=DIRECTION('ref_axis',(1.,0.,0.));
#341=DIRECTION('center_axis',(1.1686558153949E-16,-1.,0.));
#342=DIRECTION('ref_axis',(1.,0.,0.));
#343=DIRECTION('center_axis',(-1.77635683940025E-16,1.,0.));
#344=DIRECTION('ref_axis',(1.,0.,0.));
#345=DIRECTION('center_axis',(1.,0.,0.));
#346=DIRECTION('ref_axis',(0.,0.,-1.));
#347=DIRECTION('',(0.,-1.,0.));
#348=DIRECTION('',(0.,0.,1.));
#349=DIRECTION('',(0.,1.,0.));
#350=DIRECTION('',(0.,0.,1.));
#351=DIRECTION('center_axis',(1.1686558153949E-16,-1.,0.));
#352=DIRECTION('ref_axis',(0.,0.,-1.));
#353=DIRECTION('',(-1.,-1.1686558153949E-16,0.));
#354=DIRECTION('',(1.,1.1686558153949E-16,0.));
#355=DIRECTION('',(0.,0.,1.));
#356=DIRECTION('center_axis',(-1.,0.,0.));
#357=DIRECTION('ref_axis',(0.,0.,1.));
#358=DIRECTION('',(0.,1.,0.));
#359=DIRECTION('',(0.,-1.,0.));
#360=DIRECTION('',(0.,0.,1.));
#361=DIRECTION('center_axis',(0.,1.,0.));
#362=DIRECTION('ref_axis',(0.,0.,1.));
#363=DIRECTION('',(1.,0.,0.));
#364=DIRECTION('',(-1.,0.,0.));
#365=DIRECTION('center_axis',(1.,0.,0.));
#366=DIRECTION('ref_axis',(0.,0.,-1.));
#367=DIRECTION('',(0.,-1.,0.));
#368=DIRECTION('',(0.,0.,1.));
#369=DIRECTION('',(0.,-1.,0.));
#370=DIRECTION('',(0.,0.,1.));
#371=DIRECTION('center_axis',(1.77635683940025E-16,-1.,0.));
#372=DIRECTION('ref_axis',(0.,0.,-1.));
#373=DIRECTION('',(-1.,-1.77635683940025E-16,0.));
#374=DIRECTION('',(0.,0.,1.));
#375=DIRECTION('',(-1.,-1.77635683940025E-16,0.));
#376=DIRECTION('center_axis',(-1.,0.,0.));
#377=DIRECTION('ref_axis',(0.,0.,1.));
#378=DIRECTION('',(0.,1.,0.));
#379=DIRECTION('',(0.,0.,1.));
#380=DIRECTION('',(0.,1.,0.));
#381=DIRECTION('center_axis',(0.,1.,0.));
#382=DIRECTION('ref_axis',(0.,0.,1.));
#383=DIRECTION('',(1.,0.,0.));
#384=DIRECTION('',(1.,0.,0.));
#385=DIRECTION('center_axis',(0.,0.,1.));
#386=DIRECTION('ref_axis',(1.,0.,0.));
#387=DIRECTION('center_axis',(0.,0.,1.));
#388=DIRECTION('ref_axis',(1.,0.,0.));
#389=DIRECTION('',(7.10160533578934E-16,-1.,-5.45913433368107E-16));
#390=DIRECTION('',(0.70710678118653,8.88178419700138E-16,-0.707106781186565));
#391=CARTESIAN_POINT('',(0.,0.,0.));
#392=CARTESIAN_POINT('',(0.,0.,0.));
#393=CARTESIAN_POINT('Origin',(1188.0207203543,0.500068142498229,30.0000000000004));
#394=CARTESIAN_POINT('',(-12.5,0.500068142498229,33.5000000000004));
#395=CARTESIAN_POINT('Origin',(-12.5,0.500068142498229,30.0000000000004));
#396=CARTESIAN_POINT('',(-9.50000000000003,0.500068142498229,26.5000000000004));
#397=CARTESIAN_POINT('Origin',(-9.50000000000003,0.500068142498229,30.0000000000004));
#398=CARTESIAN_POINT('Origin',(1188.0207203543,0.500068142498229,30.0000000000004));
#399=CARTESIAN_POINT('',(9.50000000000003,0.500068142498229,26.5000000000004));
#400=CARTESIAN_POINT('Origin',(9.50000000000003,0.500068142498229,30.0000000000004));
#401=CARTESIAN_POINT('',(12.5,0.500068142498229,26.5000000000004));
#402=CARTESIAN_POINT('Origin',(12.5,0.500068142498229,30.0000000000004));
#403=CARTESIAN_POINT('Origin',(-0.500236201928992,-1188.0207203543,15.0000000000002));
#404=CARTESIAN_POINT('',(2.99976379807101,12.5,15.0000000000002));
#405=CARTESIAN_POINT('Origin',(-0.500236201928992,12.5,15.0000000000002));
#406=CARTESIAN_POINT('',(-4.00023620192899,9.50000000000003,15.0000000000002));
#407=CARTESIAN_POINT('Origin',(-0.500236201928992,9.50000000000003,15.0000000000002));
#408=CARTESIAN_POINT('Origin',(-0.500236201928992,-1188.0207203543,15.0000000000002));
#409=CARTESIAN_POINT('',(-4.00023620192899,-9.50000000000003,15.0000000000002));
#410=CARTESIAN_POINT('Origin',(-0.500236201928992,-9.50000000000003,15.0000000000002));
#411=CARTESIAN_POINT('',(-4.00023620192899,-12.5,15.0000000000002));
#412=CARTESIAN_POINT('Origin',(-0.500236201928992,-12.5,15.0000000000002));
#413=CARTESIAN_POINT('Origin',(9.5,9.5,0.));
#414=CARTESIAN_POINT('',(9.5,9.5,1200.));
#415=CARTESIAN_POINT('',(9.5,-9.5,1200.));
#416=CARTESIAN_POINT('',(9.5,4.75,1200.));
#417=CARTESIAN_POINT('',(9.5,9.5,0.));
#418=CARTESIAN_POINT('',(9.5,9.5,0.));
#419=CARTESIAN_POINT('',(9.5,-9.5,0.));
#420=CARTESIAN_POINT('',(9.5,4.75,0.));
#421=CARTESIAN_POINT('',(9.5,-9.5,0.));
#422=CARTESIAN_POINT('Origin',(9.5,-9.5,0.));
#423=CARTESIAN_POINT('',(-9.5,-9.5,1200.));
#424=CARTESIAN_POINT('',(4.75,-9.5,1200.));
#425=CARTESIAN_POINT('',(-9.5,-9.5,0.));
#426=CARTESIAN_POINT('',(4.75,-9.5,0.));
#427=CARTESIAN_POINT('',(-9.5,-9.5,0.));
#428=CARTESIAN_POINT('Origin',(-9.5,-9.5,0.));
#429=CARTESIAN_POINT('',(-9.5,9.5,1200.));
#430=CARTESIAN_POINT('',(-9.5,-4.75,1200.));
#431=CARTESIAN_POINT('',(-9.5,9.5,0.));
#432=CARTESIAN_POINT('',(-9.5,-4.75,0.));
#433=CARTESIAN_POINT('',(-9.5,9.5,0.));
#434=CARTESIAN_POINT('Origin',(-9.5,9.5,0.));
#435=CARTESIAN_POINT('',(-4.75,9.5,1200.));
#436=CARTESIAN_POINT('',(-4.75,9.5,0.));
#437=CARTESIAN_POINT('Origin',(12.5,12.5,0.));
#438=CARTESIAN_POINT('',(12.5,12.5,1200.));
#439=CARTESIAN_POINT('',(12.5,-12.5,1200.));
#440=CARTESIAN_POINT('',(12.5,12.5,1200.));
#441=CARTESIAN_POINT('',(12.5,-12.5,0.));
#442=CARTESIAN_POINT('',(12.5,-12.5,0.));
#443=CARTESIAN_POINT('',(12.5,12.5,0.));
#444=CARTESIAN_POINT('',(12.5,12.5,0.));
#445=CARTESIAN_POINT('',(12.5,12.5,0.));
#446=CARTESIAN_POINT('Origin',(12.5,-12.5,0.));
#447=CARTESIAN_POINT('',(-12.5,-12.5,1200.));
#448=CARTESIAN_POINT('',(12.5,-12.5,1200.));
#449=CARTESIAN_POINT('',(-12.5,-12.5,0.));
#450=CARTESIAN_POINT('',(-12.5,-12.5,0.));
#451=CARTESIAN_POINT('',(12.5,-12.5,0.));
#452=CARTESIAN_POINT('Origin',(-12.5,-12.5,0.));
#453=CARTESIAN_POINT('',(-12.5,12.5,1200.));
#454=CARTESIAN_POINT('',(-12.5,-12.5,1200.));
#455=CARTESIAN_POINT('',(-12.5,12.5,0.));
#456=CARTESIAN_POINT('',(-12.5,12.5,0.));
#457=CARTESIAN_POINT('',(-12.5,-12.5,0.));
#458=CARTESIAN_POINT('Origin',(-12.5,12.5,0.));
#459=CARTESIAN_POINT('',(-12.5,12.5,1200.));
#460=CARTESIAN_POINT('',(-12.5,12.5,0.));
#461=CARTESIAN_POINT('Origin',(-2.77555756156289E-15,2.97741629331292E-15,
1200.));
#462=CARTESIAN_POINT('Origin',(-2.77555756156289E-15,2.52323414687536E-15,
0.));
#463=CARTESIAN_POINT('',(-1.33920652345412E-13,-85.,264.592893219309));
#464=UNCERTAINTY_MEASURE_WITH_UNIT(LENGTH_MEASURE(0.01),#470,
'DISTANCE_ACCURACY_VALUE',
'Maximum model space distance between geometric entities at asserted c
onnectivities');
#465=UNCERTAINTY_MEASURE_WITH_UNIT(LENGTH_MEASURE(0.01),#470,
'DISTANCE_ACCURACY_VALUE',
'Maximum model space distance between geometric entities at asserted c
onnectivities');
#466=UNCERTAINTY_MEASURE_WITH_UNIT(LENGTH_MEASURE(1.E-6),#470,
'DISTANCE_ACCURACY_VALUE',
'Maximum model space distance between geometric entities at asserted c
onnectivities');
#467=(
GEOMETRIC_REPRESENTATION_CONTEXT(3)
GLOBAL_UNCERTAINTY_ASSIGNED_CONTEXT((#464))
GLOBAL_UNIT_ASSIGNED_CONTEXT((#470,#473,#471))
REPRESENTATION_CONTEXT('','3D')
);
#468=(
GEOMETRIC_REPRESENTATION_CONTEXT(3)
GLOBAL_UNCERTAINTY_ASSIGNED_CONTEXT((#465))
GLOBAL_UNIT_ASSIGNED_CONTEXT((#470,#473,#471))
REPRESENTATION_CONTEXT('','3D')
);
#469=(
GEOMETRIC_REPRESENTATION_CONTEXT(3)
GLOBAL_UNCERTAINTY_ASSIGNED_CONTEXT((#466))
GLOBAL_UNIT_ASSIGNED_CONTEXT((#470,#473,#471))
REPRESENTATION_CONTEXT('','3D')
);
#470=(
LENGTH_UNIT()
NAMED_UNIT(*)
SI_UNIT(.MILLI.,.METRE.)
);
#471=(
NAMED_UNIT(*)
SI_UNIT($,.STERADIAN.)
SOLID_ANGLE_UNIT()
);
#472=DIMENSIONAL_EXPONENTS(0.,0.,0.,0.,0.,0.,0.);
#473=(
CONVERSION_BASED_UNIT('degree',#475)
NAMED_UNIT(#472)
PLANE_ANGLE_UNIT()
);
#474=(
NAMED_UNIT(*)
PLANE_ANGLE_UNIT()
SI_UNIT($,.RADIAN.)
);
#475=PLANE_ANGLE_MEASURE_WITH_UNIT(PLANE_ANGLE_MEASURE(0.01745329252),#474);
#476=SHAPE_DEFINITION_REPRESENTATION(#478,#481);
#477=SHAPE_DEFINITION_REPRESENTATION(#479,#482);
#478=PRODUCT_DEFINITION_SHAPE('',$,#484);
#479=PRODUCT_DEFINITION_SHAPE('',$,#485);
#480=PRODUCT_DEFINITION_SHAPE($,$,#14);
#481=SHAPE_REPRESENTATION('',(#292,#316),#467);
#482=SHAPE_REPRESENTATION('',(#293),#468);
#483=PRODUCT_DEFINITION_CONTEXT('part definition',#491,'design');
#484=PRODUCT_DEFINITION('LCDFRPWR','boitier DENISE',#486,#483);
#485=PRODUCT_DEFINITION('Main Plate','brin',#487,#483);
#486=PRODUCT_DEFINITION_FORMATION('',$,#493);
#487=PRODUCT_DEFINITION_FORMATION('',$,#494);
#488=PRODUCT_RELATED_PRODUCT_CATEGORY('boitier DENISE','boitier DENISE',
(#493));
#489=PRODUCT_RELATED_PRODUCT_CATEGORY('brin','brin',(#494));
#490=APPLICATION_PROTOCOL_DEFINITION('international standard',
'automotive_design',2009,#491);
#491=APPLICATION_CONTEXT(
'Core Data for Automotive Mechanical Design Process');
#492=PRODUCT_CONTEXT('part definition',#491,'mechanical');
#493=PRODUCT('LCDFRPWR','boitier DENISE',$,(#492));
#494=PRODUCT('Main Plate','brin',$,(#492));
#495=PRESENTATION_STYLE_ASSIGNMENT((#498));
#496=PRESENTATION_STYLE_ASSIGNMENT((#499));
#497=PRESENTATION_STYLE_ASSIGNMENT((#500));
#498=SURFACE_STYLE_USAGE(.BOTH.,#501);
#499=SURFACE_STYLE_USAGE(.BOTH.,#502);
#500=SURFACE_STYLE_USAGE(.BOTH.,#503);
#501=SURFACE_SIDE_STYLE('',(#504));
#502=SURFACE_SIDE_STYLE('',(#505));
#503=SURFACE_SIDE_STYLE('',(#506));
#504=SURFACE_STYLE_FILL_AREA(#507);
#505=SURFACE_STYLE_FILL_AREA(#508);
#506=SURFACE_STYLE_FILL_AREA(#509);
#507=FILL_AREA_STYLE('',(#510));
#508=FILL_AREA_STYLE('',(#511));
#509=FILL_AREA_STYLE('',(#512));
#510=FILL_AREA_STYLE_COLOUR('',#513);
#511=FILL_AREA_STYLE_COLOUR('',#514);
#512=FILL_AREA_STYLE_COLOUR('',#515);
#513=COLOUR_RGB('',0.905882352941176,0.83921568627451,0.674509803921569);
#514=COLOUR_RGB('',0.956862745098039,0.956862745098039,0.956862745098039);
#515=COLOUR_RGB('',0.898039215686275,0.898039215686275,0.898039215686275);
ENDSEC;
END-ISO-10303-21;
