ISO-10303-21;
HEADER;
FILE_DESCRIPTION((''),'2;1');
FILE_NAME('025_Z_OUT_25','2021-03-29T15:46:08',('irpbja'),('DOSATRON'),
'CREO PARAMETRIC BY PTC INC, 2019080','CREO PARAMETRIC BY PTC INC, 2019080','');
FILE_SCHEMA(('CONFIG_CONTROL_DESIGN'));
ENDSEC;
DATA;
#1=CARTESIAN_POINT('',(0.E0,0.E0,0.E0));
#2=DIRECTION('',(1.E0,0.E0,0.E0));
#3=DIRECTION('',(0.E0,1.E0,0.E0));
#4=AXIS2_PLACEMENT_3D('',#1,#2,#3);
#6=DIRECTION('',(1.E0,0.E0,0.E0));
#7=VECTOR('',#6,1.32583E0);
#8=CARTESIAN_POINT('',(0.E0,3.275E0,0.E0));
#9=LINE('',#8,#7);
#10=DIRECTION('',(1.E0,0.E0,0.E0));
#11=VECTOR('',#10,1.32583E0);
#12=CARTESIAN_POINT('',(0.E0,-3.275E0,0.E0));
#13=LINE('',#12,#11);
#14=CARTESIAN_POINT('',(0.E0,0.E0,0.E0));
#15=DIRECTION('',(-1.E0,0.E0,0.E0));
#16=DIRECTION('',(0.E0,1.E0,0.E0));
#17=AXIS2_PLACEMENT_3D('',#14,#15,#16);
#19=CARTESIAN_POINT('',(1.32583E0,2.275503438049E0,0.E0));
#20=DIRECTION('',(0.E0,0.E0,-1.E0));
#21=DIRECTION('',(0.E0,1.E0,0.E0));
#22=AXIS2_PLACEMENT_3D('',#19,#20,#21);
#24=CARTESIAN_POINT('',(1.32583E0,-2.275503438049E0,0.E0));
#25=DIRECTION('',(0.E0,0.E0,1.E0));
#26=DIRECTION('',(0.E0,-1.E0,0.E0));
#27=AXIS2_PLACEMENT_3D('',#24,#25,#26);
#29=CARTESIAN_POINT('',(1.32583E0,0.E0,0.E0));
#30=DIRECTION('',(-1.E0,0.E0,0.E0));
#31=DIRECTION('',(0.E0,1.E0,0.E0));
#32=AXIS2_PLACEMENT_3D('',#29,#30,#31);
#34=CARTESIAN_POINT('',(1.32583E0,0.E0,0.E0));
#35=DIRECTION('',(1.E0,0.E0,0.E0));
#36=DIRECTION('',(0.E0,1.E0,0.E0));
#37=AXIS2_PLACEMENT_3D('',#34,#35,#36);
#39=DIRECTION('',(7.069166895308E-1,7.072968217536E-1,0.E0));
#40=VECTOR('',#39,4.216200198110E0);
#41=CARTESIAN_POINT('',(2.03273E0,-2.982105E0,0.E0));
#42=LINE('',#41,#40);
#43=DIRECTION('',(-7.069166895308E-1,7.072968217536E-1,0.E0));
#44=VECTOR('',#43,4.216200198110E0);
#45=CARTESIAN_POINT('',(5.013232286447E0,0.E0,0.E0));
#46=LINE('',#45,#44);
#47=CARTESIAN_POINT('',(2.03273E0,0.E0,0.E0));
#48=DIRECTION('',(1.E0,0.E0,0.E0));
#49=DIRECTION('',(0.E0,1.E0,0.E0));
#50=AXIS2_PLACEMENT_3D('',#47,#48,#49);
#52=CARTESIAN_POINT('',(2.03273E0,0.E0,0.E0));
#53=DIRECTION('',(-1.E0,0.E0,0.E0));
#54=DIRECTION('',(0.E0,1.E0,0.E0));
#55=AXIS2_PLACEMENT_3D('',#52,#53,#54);
#57=CARTESIAN_POINT('',(0.E0,0.E0,0.E0));
#58=DIRECTION('',(1.E0,0.E0,0.E0));
#59=DIRECTION('',(0.E0,1.E0,0.E0));
#60=AXIS2_PLACEMENT_3D('',#57,#58,#59);
#62=CARTESIAN_POINT('',(0.E0,0.E0,0.E0));
#63=DIRECTION('',(-1.E0,0.E0,0.E0));
#64=DIRECTION('',(0.E0,1.E0,0.E0));
#65=AXIS2_PLACEMENT_3D('',#62,#63,#64);
#67=CARTESIAN_POINT('',(2.02916E0,0.E0,0.E0));
#68=DIRECTION('',(1.E0,0.E0,0.E0));
#69=DIRECTION('',(0.E0,1.E0,0.E0));
#70=AXIS2_PLACEMENT_3D('',#67,#68,#69);
#72=DIRECTION('',(-1.E0,0.E0,0.E0));
#73=VECTOR('',#72,2.02916E0);
#74=CARTESIAN_POINT('',(2.02916E0,3.475E0,0.E0));
#75=LINE('',#74,#73);
#76=DIRECTION('',(-1.E0,0.E0,0.E0));
#77=VECTOR('',#76,2.02916E0);
#78=CARTESIAN_POINT('',(2.02916E0,-3.475E0,0.E0));
#79=LINE('',#78,#77);
#80=CARTESIAN_POINT('',(2.02916E0,0.E0,0.E0));
#81=DIRECTION('',(-1.E0,0.E0,0.E0));
#82=DIRECTION('',(0.E0,1.E0,0.E0));
#83=AXIS2_PLACEMENT_3D('',#80,#81,#82);
#85=CARTESIAN_POINT('',(2.02916E0,-6.525060325497E0,0.E0));
#86=DIRECTION('',(0.E0,0.E0,1.E0));
#87=DIRECTION('',(9.395943318505E-2,9.955760266878E-1,0.E0));
#88=AXIS2_PLACEMENT_3D('',#85,#86,#87);
#90=CARTESIAN_POINT('',(2.02916E0,6.525060325497E0,0.E0));
#91=DIRECTION('',(0.E0,0.E0,-1.E0));
#92=DIRECTION('',(9.395943318505E-2,-9.955760266878E-1,0.E0));
#93=AXIS2_PLACEMENT_3D('',#90,#91,#92);
#95=CARTESIAN_POINT('',(2.96876E0,0.E0,0.E0));
#96=DIRECTION('',(-1.E0,0.E0,0.E0));
#97=DIRECTION('',(0.E0,1.E0,0.E0));
#98=AXIS2_PLACEMENT_3D('',#95,#96,#97);
#100=CARTESIAN_POINT('',(2.96876E0,0.E0,0.E0));
#101=DIRECTION('',(1.E0,0.E0,0.E0));
#102=DIRECTION('',(0.E0,1.E0,0.E0));
#103=AXIS2_PLACEMENT_3D('',#100,#101,#102);
#105=CARTESIAN_POINT('',(2.07187E1,0.E0,0.E0));
#106=DIRECTION('',(1.E0,0.E0,0.E0));
#107=DIRECTION('',(0.E0,1.E0,0.E0));
#108=AXIS2_PLACEMENT_3D('',#105,#106,#107);
#110=CARTESIAN_POINT('',(2.072654371073E1,9.929999968449E1,1.216074267689E-14));
#111=DIRECTION('',(0.E0,0.E0,-1.E0));
#112=DIRECTION('',(-8.044831520810E-5,-9.999999967640E-1,0.E0));
#113=AXIS2_PLACEMENT_3D('',#110,#111,#112);
#115=CARTESIAN_POINT('',(2.072654371073E1,-9.929999968449E1,
-2.432148535379E-14));
#116=DIRECTION('',(0.E0,0.E0,1.E0));
#117=DIRECTION('',(-8.044831520810E-5,9.999999967640E-1,0.E0));
#118=AXIS2_PLACEMENT_3D('',#115,#116,#117);
#120=CARTESIAN_POINT('',(2.07187E1,0.E0,0.E0));
#121=DIRECTION('',(-1.E0,0.E0,0.E0));
#122=DIRECTION('',(0.E0,1.E0,0.E0));
#123=AXIS2_PLACEMENT_3D('',#120,#121,#122);
#125=DIRECTION('',(-1.E0,0.E0,0.E0));
#126=VECTOR('',#125,4.52916E0);
#127=CARTESIAN_POINT('',(2.524786E1,1.8E0,0.E0));
#128=LINE('',#127,#126);
#129=DIRECTION('',(-1.E0,0.E0,0.E0));
#130=VECTOR('',#129,4.52916E0);
#131=CARTESIAN_POINT('',(2.524786E1,-1.8E0,0.E0));
#132=LINE('',#131,#130);
#133=CARTESIAN_POINT('',(2.524786E1,0.E0,0.E0));
#134=DIRECTION('',(-1.E0,0.E0,0.E0));
#135=DIRECTION('',(0.E0,1.E0,0.E0));
#136=AXIS2_PLACEMENT_3D('',#133,#134,#135);
#138=CARTESIAN_POINT('',(2.524786E1,0.E0,0.E0));
#139=DIRECTION('',(1.E0,0.E0,0.E0));
#140=DIRECTION('',(0.E0,1.E0,0.E0));
#141=AXIS2_PLACEMENT_3D('',#138,#139,#140);
#143=CARTESIAN_POINT('',(2.524786E1,0.E0,0.E0));
#144=DIRECTION('',(0.E0,0.E0,1.E0));
#145=DIRECTION('',(1.E0,0.E0,0.E0));
#146=AXIS2_PLACEMENT_3D('',#143,#144,#145);
#148=CARTESIAN_POINT('',(2.524786E1,0.E0,0.E0));
#149=DIRECTION('',(0.E0,0.E0,-1.E0));
#150=DIRECTION('',(1.E0,0.E0,0.E0));
#151=AXIS2_PLACEMENT_3D('',#148,#149,#150);
#153=CARTESIAN_POINT('',(0.E0,3.275E0,0.E0));
#154=CARTESIAN_POINT('',(1.32583E0,3.275E0,0.E0));
#155=VERTEX_POINT('',#153);
#156=VERTEX_POINT('',#154);
#157=CARTESIAN_POINT('',(2.03273E0,2.982105E0,0.E0));
#158=VERTEX_POINT('',#157);
#159=CARTESIAN_POINT('',(2.704786E1,0.E0,0.E0));
#160=CARTESIAN_POINT('',(2.524786E1,1.8E0,0.E0));
#161=VERTEX_POINT('',#159);
#162=VERTEX_POINT('',#160);
#163=CARTESIAN_POINT('',(2.07187E1,1.8E0,0.E0));
#164=VERTEX_POINT('',#163);
#165=CARTESIAN_POINT('',(2.96876E0,3.43076E0,0.E0));
#166=VERTEX_POINT('',#165);
#167=CARTESIAN_POINT('',(2.02916E0,3.475E0,0.E0));
#168=VERTEX_POINT('',#167);
#169=CARTESIAN_POINT('',(0.E0,3.475E0,0.E0));
#170=VERTEX_POINT('',#169);
#171=CARTESIAN_POINT('',(0.E0,-3.275E0,0.E0));
#172=CARTESIAN_POINT('',(1.32583E0,-3.275E0,0.E0));
#173=VERTEX_POINT('',#171);
#174=VERTEX_POINT('',#172);
#175=CARTESIAN_POINT('',(2.03273E0,-2.982105E0,0.E0));
#176=VERTEX_POINT('',#175);
#177=CARTESIAN_POINT('',(2.524786E1,-1.8E0,0.E0));
#178=VERTEX_POINT('',#177);
#179=CARTESIAN_POINT('',(2.07187E1,-1.8E0,0.E0));
#180=VERTEX_POINT('',#179);
#181=CARTESIAN_POINT('',(2.96876E0,-3.43076E0,0.E0));
#182=VERTEX_POINT('',#181);
#183=CARTESIAN_POINT('',(2.02916E0,-3.475E0,0.E0));
#184=VERTEX_POINT('',#183);
#185=CARTESIAN_POINT('',(0.E0,-3.475E0,0.E0));
#186=VERTEX_POINT('',#185);
#187=CARTESIAN_POINT('',(5.013232286447E0,0.E0,0.E0));
#188=VERTEX_POINT('',#187);
#189=CARTESIAN_POINT('',(-1.352393E0,0.E0,0.E0));
#190=DIRECTION('',(1.E0,0.E0,0.E0));
#191=DIRECTION('',(0.E0,-1.E0,0.E0));
#192=AXIS2_PLACEMENT_3D('',#189,#190,#191);
#193=CYLINDRICAL_SURFACE('',#192,3.275E0);
#195=ORIENTED_EDGE('',*,*,#194,.F.);
#197=ORIENTED_EDGE('',*,*,#196,.T.);
#199=ORIENTED_EDGE('',*,*,#198,.T.);
#201=ORIENTED_EDGE('',*,*,#200,.F.);
#202=EDGE_LOOP('',(#195,#197,#199,#201));
#203=FACE_OUTER_BOUND('',#202,.F.);
#204=ADVANCED_FACE('',(#203),#193,.F.);
#205=CARTESIAN_POINT('',(-1.352393E0,0.E0,0.E0));
#206=DIRECTION('',(1.E0,0.E0,0.E0));
#207=DIRECTION('',(0.E0,-1.E0,0.E0));
#208=AXIS2_PLACEMENT_3D('',#205,#206,#207);
#209=CYLINDRICAL_SURFACE('',#208,3.275E0);
#210=ORIENTED_EDGE('',*,*,#194,.T.);
#212=ORIENTED_EDGE('',*,*,#211,.T.);
#213=ORIENTED_EDGE('',*,*,#198,.F.);
#215=ORIENTED_EDGE('',*,*,#214,.F.);
#216=EDGE_LOOP('',(#210,#212,#213,#215));
#217=FACE_OUTER_BOUND('',#216,.F.);
#218=ADVANCED_FACE('',(#217),#209,.F.);
#219=CARTESIAN_POINT('',(1.32583E0,0.E0,0.E0));
#220=DIRECTION('',(1.E0,0.E0,0.E0));
#221=DIRECTION('',(0.E0,-1.E0,0.E0));
#222=AXIS2_PLACEMENT_3D('',#219,#220,#221);
#223=TOROIDAL_SURFACE('',#222,2.275503438049E0,9.994965619505E-1);
#225=ORIENTED_EDGE('',*,*,#224,.T.);
#227=ORIENTED_EDGE('',*,*,#226,.T.);
#229=ORIENTED_EDGE('',*,*,#228,.F.);
#230=ORIENTED_EDGE('',*,*,#211,.F.);
#231=EDGE_LOOP('',(#225,#227,#229,#230));
#232=FACE_OUTER_BOUND('',#231,.F.);
#233=ADVANCED_FACE('',(#232),#223,.F.);
#234=CARTESIAN_POINT('',(1.32583E0,0.E0,0.E0));
#235=DIRECTION('',(1.E0,0.E0,0.E0));
#236=DIRECTION('',(0.E0,-1.E0,0.E0));
#237=AXIS2_PLACEMENT_3D('',#234,#235,#236);
#238=TOROIDAL_SURFACE('',#237,2.275503438049E0,9.994965619505E-1);
#239=ORIENTED_EDGE('',*,*,#224,.F.);
#240=ORIENTED_EDGE('',*,*,#200,.T.);
#241=ORIENTED_EDGE('',*,*,#228,.T.);
#243=ORIENTED_EDGE('',*,*,#242,.F.);
#244=EDGE_LOOP('',(#239,#240,#241,#243));
#245=FACE_OUTER_BOUND('',#244,.F.);
#246=ADVANCED_FACE('',(#245),#238,.F.);
#247=CARTESIAN_POINT('',(3.493176120359E0,0.E0,0.E0));
#248=DIRECTION('',(-1.E0,0.E0,0.E0));
#249=DIRECTION('',(0.E0,1.E0,0.E0));
#250=AXIS2_PLACEMENT_3D('',#247,#248,#249);
#251=CONICAL_SURFACE('',#250,1.52087355E0,4.501540076610E1);
#253=ORIENTED_EDGE('',*,*,#252,.T.);
#255=ORIENTED_EDGE('',*,*,#254,.T.);
#256=ORIENTED_EDGE('',*,*,#242,.T.);
#257=EDGE_LOOP('',(#253,#255,#256));
#258=FACE_OUTER_BOUND('',#257,.F.);
#259=ADVANCED_FACE('',(#258),#251,.F.);
#260=CARTESIAN_POINT('',(3.493176120359E0,0.E0,0.E0));
#261=DIRECTION('',(-1.E0,0.E0,0.E0));
#262=DIRECTION('',(0.E0,1.E0,0.E0));
#263=AXIS2_PLACEMENT_3D('',#260,#261,#262);
#264=CONICAL_SURFACE('',#263,1.52087355E0,4.501540076610E1);
#265=ORIENTED_EDGE('',*,*,#254,.F.);
#266=ORIENTED_EDGE('',*,*,#252,.F.);
#267=ORIENTED_EDGE('',*,*,#226,.F.);
#268=EDGE_LOOP('',(#265,#266,#267));
#269=FACE_OUTER_BOUND('',#268,.F.);
#270=ADVANCED_FACE('',(#269),#264,.F.);
#271=CARTESIAN_POINT('',(0.E0,0.E0,0.E0));
#272=DIRECTION('',(1.E0,0.E0,0.E0));
#273=DIRECTION('',(0.E0,-1.E0,0.E0));
#274=AXIS2_PLACEMENT_3D('',#271,#272,#273);
#275=PLANE('',#274);
#277=ORIENTED_EDGE('',*,*,#276,.T.);
#279=ORIENTED_EDGE('',*,*,#278,.F.);
#280=EDGE_LOOP('',(#277,#279));
#281=FACE_OUTER_BOUND('',#280,.F.);
#282=ORIENTED_EDGE('',*,*,#214,.T.);
#283=ORIENTED_EDGE('',*,*,#196,.F.);
#284=EDGE_LOOP('',(#282,#283));
#285=FACE_BOUND('',#284,.F.);
#286=ADVANCED_FACE('',(#281,#285),#275,.F.);
#287=CARTESIAN_POINT('',(-1.352393E0,0.E0,0.E0));
#288=DIRECTION('',(1.E0,0.E0,0.E0));
#289=DIRECTION('',(0.E0,-1.E0,0.E0));
#290=AXIS2_PLACEMENT_3D('',#287,#288,#289);
#291=CYLINDRICAL_SURFACE('',#290,3.475E0);
#293=ORIENTED_EDGE('',*,*,#292,.F.);
#295=ORIENTED_EDGE('',*,*,#294,.T.);
#297=ORIENTED_EDGE('',*,*,#296,.T.);
#298=ORIENTED_EDGE('',*,*,#276,.F.);
#299=EDGE_LOOP('',(#293,#295,#297,#298));
#300=FACE_OUTER_BOUND('',#299,.F.);
#301=ADVANCED_FACE('',(#300),#291,.T.);
#302=CARTESIAN_POINT('',(-1.352393E0,0.E0,0.E0));
#303=DIRECTION('',(1.E0,0.E0,0.E0));
#304=DIRECTION('',(0.E0,-1.E0,0.E0));
#305=AXIS2_PLACEMENT_3D('',#302,#303,#304);
#306=CYLINDRICAL_SURFACE('',#305,3.475E0);
#307=ORIENTED_EDGE('',*,*,#292,.T.);
#308=ORIENTED_EDGE('',*,*,#278,.T.);
#309=ORIENTED_EDGE('',*,*,#296,.F.);
#311=ORIENTED_EDGE('',*,*,#310,.F.);
#312=EDGE_LOOP('',(#307,#308,#309,#311));
#313=FACE_OUTER_BOUND('',#312,.F.);
#314=ADVANCED_FACE('',(#313),#306,.T.);
#315=CARTESIAN_POINT('',(1.994623576396E0,-3.468083360924E0,2.181933106605E-1));
#316=CARTESIAN_POINT('',(2.331451778178E0,-3.469244349515E0,2.182663538713E-1));
#317=CARTESIAN_POINT('',(2.667909250535E0,-3.453433891161E0,2.172716441449E-1));
#318=CARTESIAN_POINT('',(3.003138031830E0,-3.420692302300E0,2.152117179764E-1));
#319=CARTESIAN_POINT('',(1.994623576396E0,-3.602359218245E0,-1.916060324963E0));
#320=CARTESIAN_POINT('',(2.331451778178E0,-3.603565157525E0,-1.916701752503E0));
#321=CARTESIAN_POINT('',(2.667909250535E0,-3.587142556200E0,-1.907966728336E0));
#322=CARTESIAN_POINT('',(3.003138031830E0,-3.553133291665E0,-1.889877526646E0));
#323=CARTESIAN_POINT('',(1.994623576396E0,-2.138473424439E0,-3.474940361954E0));
#324=CARTESIAN_POINT('',(2.331451778178E0,-2.139189307822E0,-3.476103646020E0));
#325=CARTESIAN_POINT('',(2.667909250535E0,-2.129440336560E0,-3.460261927654E0));
#326=CARTESIAN_POINT('',(3.003138031830E0,-2.109251370389E0,-3.427455603005E0));
#327=CARTESIAN_POINT('',(1.994623576396E0,0.E0,-3.474940361954E0));
#328=CARTESIAN_POINT('',(2.331451778178E0,0.E0,-3.476103646020E0));
#329=CARTESIAN_POINT('',(2.667909250535E0,0.E0,-3.460261927654E0));
#330=CARTESIAN_POINT('',(3.003138031830E0,0.E0,-3.427455603005E0));
#331=CARTESIAN_POINT('',(1.994623576396E0,2.138473424439E0,-3.474940361954E0));
#332=CARTESIAN_POINT('',(2.331451778178E0,2.139189307822E0,-3.476103646020E0));
#333=CARTESIAN_POINT('',(2.667909250535E0,2.129440336560E0,-3.460261927654E0));
#334=CARTESIAN_POINT('',(3.003138031830E0,2.109251370389E0,-3.427455603005E0));
#335=CARTESIAN_POINT('',(1.994623576396E0,3.602359218245E0,-1.916060324963E0));
#336=CARTESIAN_POINT('',(2.331451778178E0,3.603565157525E0,-1.916701752503E0));
#337=CARTESIAN_POINT('',(2.667909250535E0,3.587142556200E0,-1.907966728336E0));
#338=CARTESIAN_POINT('',(3.003138031830E0,3.553133291665E0,-1.889877526646E0));
#339=CARTESIAN_POINT('',(1.994623576396E0,3.468083360924E0,2.181933106605E-1));
#340=CARTESIAN_POINT('',(2.331451778178E0,3.469244349515E0,2.182663538713E-1));
#341=CARTESIAN_POINT('',(2.667909250535E0,3.453433891161E0,2.172716441449E-1));
#342=CARTESIAN_POINT('',(3.003138031830E0,3.420692302300E0,2.152117179764E-1));
#343=(BOUNDED_SURFACE()B_SPLINE_SURFACE(3,3,((#315,#316,#317,#318),(#319,#320,
#321,#322),(#323,#324,#325,#326),(#327,#328,#329,#330),(#331,#332,#333,#334),(
#335,#336,#337,#338),(#339,#340,#341,#342)),.UNSPECIFIED.,.F.,.F.,.F.)B_SPLINE_SURFACE_WITH_KNOTS((4,3,4),(4,4),(0.E0,1.E0,2.E0),(0.E0,1.E0),.UNSPECIFIED.)GEOMETRIC_REPRESENTATION_ITEM()RATIONAL_B_SPLINE_SURFACE(((1.188020090961E0,
1.187010279672E0,1.187010279672E0,1.188020090961E0),(9.381771736885E-1,
9.373797276620E-1,9.373797276620E-1,9.381771736885E-1),(9.381771736885E-1,
9.373797276620E-1,9.373797276620E-1,9.381771736885E-1),(1.188020090961E0,
1.187010279672E0,1.187010279672E0,1.188020090961E0),(9.381771736885E-1,
9.373797276620E-1,9.373797276620E-1,9.381771736885E-1),(9.381771736885E-1,
9.373797276620E-1,9.373797276620E-1,9.381771736885E-1),(1.188020090961E0,
1.187010279672E0,1.187010279672E0,1.188020090961E0)))REPRESENTATION_ITEM('')SURFACE());
#345=ORIENTED_EDGE('',*,*,#344,.T.);
#346=ORIENTED_EDGE('',*,*,#310,.T.);
#348=ORIENTED_EDGE('',*,*,#347,.F.);
#350=ORIENTED_EDGE('',*,*,#349,.F.);
#351=EDGE_LOOP('',(#345,#346,#348,#350));
#352=FACE_OUTER_BOUND('',#351,.F.);
#353=ADVANCED_FACE('',(#352),#343,.T.);
#354=CARTESIAN_POINT('',(1.994623576396E0,3.468083360924E0,-2.181933106605E-1));
#355=CARTESIAN_POINT('',(2.331451778178E0,3.469244349515E0,-2.182663538713E-1));
#356=CARTESIAN_POINT('',(2.667909250535E0,3.453433891161E0,-2.172716441449E-1));
#357=CARTESIAN_POINT('',(3.003138031830E0,3.420692302300E0,-2.152117179764E-1));
#358=CARTESIAN_POINT('',(1.994623576396E0,3.602359218245E0,1.916060324963E0));
#359=CARTESIAN_POINT('',(2.331451778178E0,3.603565157525E0,1.916701752503E0));
#360=CARTESIAN_POINT('',(2.667909250535E0,3.587142556200E0,1.907966728336E0));
#361=CARTESIAN_POINT('',(3.003138031830E0,3.553133291665E0,1.889877526646E0));
#362=CARTESIAN_POINT('',(1.994623576396E0,2.138473424439E0,3.474940361954E0));
#363=CARTESIAN_POINT('',(2.331451778178E0,2.139189307822E0,3.476103646020E0));
#364=CARTESIAN_POINT('',(2.667909250535E0,2.129440336560E0,3.460261927654E0));
#365=CARTESIAN_POINT('',(3.003138031830E0,2.109251370389E0,3.427455603005E0));
#366=CARTESIAN_POINT('',(1.994623576396E0,0.E0,3.474940361954E0));
#367=CARTESIAN_POINT('',(2.331451778178E0,0.E0,3.476103646020E0));
#368=CARTESIAN_POINT('',(2.667909250535E0,0.E0,3.460261927654E0));
#369=CARTESIAN_POINT('',(3.003138031830E0,0.E0,3.427455603005E0));
#370=CARTESIAN_POINT('',(1.994623576396E0,-2.138473424439E0,3.474940361954E0));
#371=CARTESIAN_POINT('',(2.331451778178E0,-2.139189307822E0,3.476103646020E0));
#372=CARTESIAN_POINT('',(2.667909250535E0,-2.129440336560E0,3.460261927654E0));
#373=CARTESIAN_POINT('',(3.003138031830E0,-2.109251370389E0,3.427455603005E0));
#374=CARTESIAN_POINT('',(1.994623576396E0,-3.602359218245E0,1.916060324963E0));
#375=CARTESIAN_POINT('',(2.331451778178E0,-3.603565157525E0,1.916701752503E0));
#376=CARTESIAN_POINT('',(2.667909250535E0,-3.587142556200E0,1.907966728336E0));
#377=CARTESIAN_POINT('',(3.003138031830E0,-3.553133291665E0,1.889877526646E0));
#378=CARTESIAN_POINT('',(1.994623576396E0,-3.468083360924E0,
-2.181933106605E-1));
#379=CARTESIAN_POINT('',(2.331451778178E0,-3.469244349515E0,
-2.182663538713E-1));
#380=CARTESIAN_POINT('',(2.667909250535E0,-3.453433891161E0,
-2.172716441449E-1));
#381=CARTESIAN_POINT('',(3.003138031830E0,-3.420692302300E0,
-2.152117179764E-1));
#382=(BOUNDED_SURFACE()B_SPLINE_SURFACE(3,3,((#354,#355,#356,#357),(#358,#359,
#360,#361),(#362,#363,#364,#365),(#366,#367,#368,#369),(#370,#371,#372,#373),(
#374,#375,#376,#377),(#378,#379,#380,#381)),.UNSPECIFIED.,.F.,.F.,.F.)B_SPLINE_SURFACE_WITH_KNOTS((4,3,4),(4,4),(0.E0,1.E0,2.E0),(0.E0,1.E0),.UNSPECIFIED.)GEOMETRIC_REPRESENTATION_ITEM()RATIONAL_B_SPLINE_SURFACE(((1.188020090961E0,
1.187010279672E0,1.187010279672E0,1.188020090961E0),(9.381771736885E-1,
9.373797276620E-1,9.373797276620E-1,9.381771736885E-1),(9.381771736885E-1,
9.373797276620E-1,9.373797276620E-1,9.381771736885E-1),(1.188020090961E0,
1.187010279672E0,1.187010279672E0,1.188020090961E0),(9.381771736885E-1,
9.373797276620E-1,9.373797276620E-1,9.381771736885E-1),(9.381771736885E-1,
9.373797276620E-1,9.373797276620E-1,9.381771736885E-1),(1.188020090961E0,
1.187010279672E0,1.187010279672E0,1.188020090961E0)))REPRESENTATION_ITEM('')SURFACE());
#383=ORIENTED_EDGE('',*,*,#344,.F.);
#385=ORIENTED_EDGE('',*,*,#384,.T.);
#386=ORIENTED_EDGE('',*,*,#347,.T.);
#387=ORIENTED_EDGE('',*,*,#294,.F.);
#388=EDGE_LOOP('',(#383,#385,#386,#387));
#389=FACE_OUTER_BOUND('',#388,.F.);
#390=ADVANCED_FACE('',(#389),#382,.T.);
#391=CARTESIAN_POINT('',(2.072654371073E1,0.E0,0.E0));
#392=DIRECTION('',(1.E0,0.E0,0.E0));
#393=DIRECTION('',(0.E0,-1.E0,0.E0));
#394=AXIS2_PLACEMENT_3D('',#391,#392,#393);
#395=TOROIDAL_SURFACE('',#394,9.929999968449E1,9.75E1);
#397=ORIENTED_EDGE('',*,*,#396,.F.);
#399=ORIENTED_EDGE('',*,*,#398,.T.);
#401=ORIENTED_EDGE('',*,*,#400,.T.);
#402=ORIENTED_EDGE('',*,*,#384,.F.);
#403=EDGE_LOOP('',(#397,#399,#401,#402));
#404=FACE_OUTER_BOUND('',#403,.F.);
#405=ADVANCED_FACE('',(#404),#395,.F.);
#406=CARTESIAN_POINT('',(2.072654371073E1,0.E0,0.E0));
#407=DIRECTION('',(1.E0,0.E0,0.E0));
#408=DIRECTION('',(0.E0,-1.E0,0.E0));
#409=AXIS2_PLACEMENT_3D('',#406,#407,#408);
#410=TOROIDAL_SURFACE('',#409,9.929999968449E1,9.75E1);
#411=ORIENTED_EDGE('',*,*,#396,.T.);
#412=ORIENTED_EDGE('',*,*,#349,.T.);
#413=ORIENTED_EDGE('',*,*,#400,.F.);
#415=ORIENTED_EDGE('',*,*,#414,.F.);
#416=EDGE_LOOP('',(#411,#412,#413,#415));
#417=FACE_OUTER_BOUND('',#416,.F.);
#418=ADVANCED_FACE('',(#417),#410,.F.);
#419=CARTESIAN_POINT('',(-1.352393E0,0.E0,0.E0));
#420=DIRECTION('',(1.E0,0.E0,0.E0));
#421=DIRECTION('',(0.E0,-1.E0,0.E0));
#422=AXIS2_PLACEMENT_3D('',#419,#420,#421);
#423=CYLINDRICAL_SURFACE('',#422,1.8E0);
#425=ORIENTED_EDGE('',*,*,#424,.T.);
#426=ORIENTED_EDGE('',*,*,#414,.T.);
#428=ORIENTED_EDGE('',*,*,#427,.F.);
#430=ORIENTED_EDGE('',*,*,#429,.F.);
#431=EDGE_LOOP('',(#425,#426,#428,#430));
#432=FACE_OUTER_BOUND('',#431,.F.);
#433=ADVANCED_FACE('',(#432),#423,.T.);
#434=CARTESIAN_POINT('',(-1.352393E0,0.E0,0.E0));
#435=DIRECTION('',(1.E0,0.E0,0.E0));
#436=DIRECTION('',(0.E0,-1.E0,0.E0));
#437=AXIS2_PLACEMENT_3D('',#434,#435,#436);
#438=CYLINDRICAL_SURFACE('',#437,1.8E0);
#439=ORIENTED_EDGE('',*,*,#424,.F.);
#441=ORIENTED_EDGE('',*,*,#440,.T.);
#442=ORIENTED_EDGE('',*,*,#427,.T.);
#443=ORIENTED_EDGE('',*,*,#398,.F.);
#444=EDGE_LOOP('',(#439,#441,#442,#443));
#445=FACE_OUTER_BOUND('',#444,.F.);
#446=ADVANCED_FACE('',(#445),#438,.T.);
#447=CARTESIAN_POINT('',(2.524786E1,0.E0,0.E0));
#448=DIRECTION('',(1.E0,0.E0,0.E0));
#449=DIRECTION('',(0.E0,-1.E0,0.E0));
#450=AXIS2_PLACEMENT_3D('',#447,#448,#449);
#451=SPHERICAL_SURFACE('',#450,1.8E0);
#453=ORIENTED_EDGE('',*,*,#452,.F.);
#455=ORIENTED_EDGE('',*,*,#454,.T.);
#456=ORIENTED_EDGE('',*,*,#440,.F.);
#457=EDGE_LOOP('',(#453,#455,#456));
#458=FACE_OUTER_BOUND('',#457,.F.);
#459=ADVANCED_FACE('',(#458),#451,.T.);
#460=CARTESIAN_POINT('',(2.524786E1,0.E0,0.E0));
#461=DIRECTION('',(1.E0,0.E0,0.E0));
#462=DIRECTION('',(0.E0,-1.E0,0.E0));
#463=AXIS2_PLACEMENT_3D('',#460,#461,#462);
#464=SPHERICAL_SURFACE('',#463,1.8E0);
#465=ORIENTED_EDGE('',*,*,#452,.T.);
#466=ORIENTED_EDGE('',*,*,#429,.T.);
#467=ORIENTED_EDGE('',*,*,#454,.F.);
#468=EDGE_LOOP('',(#465,#466,#467));
#469=FACE_OUTER_BOUND('',#468,.F.);
#470=ADVANCED_FACE('',(#469),#464,.T.);
#471=CLOSED_SHELL('',(#204,#218,#233,#246,#259,#270,#286,#301,#314,#353,#390,
#405,#418,#433,#446,#459,#470));
#472=MANIFOLD_SOLID_BREP('',#471);
#474=DIMENSIONAL_EXPONENTS(0.E0,0.E0,0.E0,0.E0,0.E0,0.E0,0.E0);
#476=PLANE_ANGLE_MEASURE_WITH_UNIT(PLANE_ANGLE_MEASURE(1.745329251994E-2),#475);
#477=(CONVERSION_BASED_UNIT('DEGREE',#476)NAMED_UNIT(*)PLANE_ANGLE_UNIT());
#479=UNCERTAINTY_MEASURE_WITH_UNIT(LENGTH_MEASURE(2.877925899987E-3),#473,
'closure',
'Maximum model space distance between geometric entities at asserted connectivities');
#480=(GEOMETRIC_REPRESENTATION_CONTEXT(3)GLOBAL_UNCERTAINTY_ASSIGNED_CONTEXT((
#479))GLOBAL_UNIT_ASSIGNED_CONTEXT((#473,#477,#478))REPRESENTATION_CONTEXT
('ID1','3'));
#482=APPLICATION_CONTEXT(
'CONFIGURATION CONTROLLED 3D DESIGNS OF MECHANICAL PARTS AND ASSEMBLIES');
#483=APPLICATION_PROTOCOL_DEFINITION('international standard',
'config_control_design',1994,#482);
#484=DESIGN_CONTEXT('',#482,'design');
#485=MECHANICAL_CONTEXT('',#482,'mechanical');
#486=PRODUCT('025_Z_OUT_25','025_Z_OUT_25','NOT SPECIFIED',(#485));
#487=PRODUCT_DEFINITION_FORMATION_WITH_SPECIFIED_SOURCE('1','LAST_VERSION',#486,
.MADE.);
#491=PRODUCT_CATEGORY('part','');
#492=PRODUCT_RELATED_PRODUCT_CATEGORY('detail','',(#486));
#493=PRODUCT_CATEGORY_RELATIONSHIP('','',#491,#492);
#494=SECURITY_CLASSIFICATION_LEVEL('unclassified');
#495=SECURITY_CLASSIFICATION('','',#494);
#496=CC_DESIGN_SECURITY_CLASSIFICATION(#495,(#487));
#497=APPROVAL_STATUS('approved');
#498=APPROVAL(#497,'');
#499=CC_DESIGN_APPROVAL(#498,(#495,#487,#488));
#500=CALENDAR_DATE(121,29,3);
#501=COORDINATED_UNIVERSAL_TIME_OFFSET(2,0,.AHEAD.);
#502=LOCAL_TIME(15,46,8.E0,#501);
#503=DATE_AND_TIME(#500,#502);
#504=APPROVAL_DATE_TIME(#503,#498);
#505=DATE_TIME_ROLE('creation_date');
#506=CC_DESIGN_DATE_AND_TIME_ASSIGNMENT(#503,#505,(#488));
#507=DATE_TIME_ROLE('classification_date');
#508=CC_DESIGN_DATE_AND_TIME_ASSIGNMENT(#503,#507,(#495));
#509=PERSON('UNSPECIFIED','UNSPECIFIED',$,$,$,$);
#510=ORGANIZATION('UNSPECIFIED','UNSPECIFIED','UNSPECIFIED');
#511=PERSON_AND_ORGANIZATION(#509,#510);
#512=APPROVAL_ROLE('approver');
#513=APPROVAL_PERSON_ORGANIZATION(#511,#498,#512);
#514=PERSON_AND_ORGANIZATION_ROLE('creator');
#515=CC_DESIGN_PERSON_AND_ORGANIZATION_ASSIGNMENT(#511,#514,(#487,#488));
#516=PERSON_AND_ORGANIZATION_ROLE('design_supplier');
#517=CC_DESIGN_PERSON_AND_ORGANIZATION_ASSIGNMENT(#511,#516,(#487));
#518=PERSON_AND_ORGANIZATION_ROLE('classification_officer');
#519=CC_DESIGN_PERSON_AND_ORGANIZATION_ASSIGNMENT(#511,#518,(#495));
#520=PERSON_AND_ORGANIZATION_ROLE('design_owner');
#521=CC_DESIGN_PERSON_AND_ORGANIZATION_ASSIGNMENT(#511,#520,(#486));
#5=CIRCLE('',#4,3.275E0);
#18=CIRCLE('',#17,3.275E0);
#23=CIRCLE('',#22,9.994965619505E-1);
#28=CIRCLE('',#27,9.994965619505E-1);
#33=CIRCLE('',#32,3.275E0);
#38=CIRCLE('',#37,3.275E0);
#51=CIRCLE('',#50,2.982105E0);
#56=CIRCLE('',#55,2.982105E0);
#61=CIRCLE('',#60,3.475E0);
#66=CIRCLE('',#65,3.475E0);
#71=CIRCLE('',#70,3.475E0);
#84=CIRCLE('',#83,3.475E0);
#89=CIRCLE('',#88,1.000006032550E1);
#94=CIRCLE('',#93,1.000006032550E1);
#99=CIRCLE('',#98,3.43076E0);
#104=CIRCLE('',#103,3.43076E0);
#109=CIRCLE('',#108,1.8E0);
#114=CIRCLE('',#113,9.75E1);
#119=CIRCLE('',#118,9.75E1);
#124=CIRCLE('',#123,1.8E0);
#137=CIRCLE('',#136,1.8E0);
#142=CIRCLE('',#141,1.8E0);
#147=CIRCLE('',#146,1.8E0);
#152=CIRCLE('',#151,1.8E0);
#194=EDGE_CURVE('',#155,#156,#9,.T.);
#196=EDGE_CURVE('',#155,#173,#5,.T.);
#198=EDGE_CURVE('',#173,#174,#13,.T.);
#200=EDGE_CURVE('',#156,#174,#38,.T.);
#211=EDGE_CURVE('',#156,#174,#33,.T.);
#214=EDGE_CURVE('',#155,#173,#18,.T.);
#224=EDGE_CURVE('',#156,#158,#23,.T.);
#226=EDGE_CURVE('',#158,#176,#56,.T.);
#228=EDGE_CURVE('',#174,#176,#28,.T.);
#242=EDGE_CURVE('',#158,#176,#51,.T.);
#252=EDGE_CURVE('',#176,#188,#42,.T.);
#254=EDGE_CURVE('',#188,#158,#46,.T.);
#276=EDGE_CURVE('',#170,#186,#61,.T.);
#278=EDGE_CURVE('',#170,#186,#66,.T.);
#292=EDGE_CURVE('',#168,#170,#75,.T.);
#294=EDGE_CURVE('',#168,#184,#71,.T.);
#296=EDGE_CURVE('',#184,#186,#79,.T.);
#310=EDGE_CURVE('',#168,#184,#84,.T.);
#344=EDGE_CURVE('',#166,#168,#89,.T.);
#347=EDGE_CURVE('',#182,#184,#94,.T.);
#349=EDGE_CURVE('',#166,#182,#99,.T.);
#384=EDGE_CURVE('',#166,#182,#104,.T.);
#396=EDGE_CURVE('',#164,#166,#114,.T.);
#398=EDGE_CURVE('',#164,#180,#109,.T.);
#400=EDGE_CURVE('',#180,#182,#119,.T.);
#414=EDGE_CURVE('',#164,#180,#124,.T.);
#424=EDGE_CURVE('',#162,#164,#128,.T.);
#427=EDGE_CURVE('',#178,#180,#132,.T.);
#429=EDGE_CURVE('',#162,#178,#137,.T.);
#440=EDGE_CURVE('',#162,#178,#142,.T.);
#452=EDGE_CURVE('',#161,#162,#147,.T.);
#454=EDGE_CURVE('',#161,#178,#152,.T.);
#473=(LENGTH_UNIT()NAMED_UNIT(*)SI_UNIT(.MILLI.,.METRE.));
#475=(NAMED_UNIT(*)PLANE_ANGLE_UNIT()SI_UNIT($,.RADIAN.));
#478=(NAMED_UNIT(*)SI_UNIT($,.STERADIAN.)SOLID_ANGLE_UNIT());
#481=ADVANCED_BREP_SHAPE_REPRESENTATION('',(#472),#480);
#488=PRODUCT_DEFINITION('design','',#487,#484);
#489=PRODUCT_DEFINITION_SHAPE('','SHAPE FOR 025_Z_OUT_25.',#488);
#490=SHAPE_DEFINITION_REPRESENTATION(#489,#481);
ENDSEC;
END-ISO-10303-21;
