ISO-10303-21;
HEADER;
FILE_DESCRIPTION (( 'STEP AP203' ),
    '1' );
FILE_NAME ('mão.STEP',
    '2018-10-30T02:08:16',
    ( '' ),
    ( '' ),
    'SwSTEP 2.0',
    'SolidWorks 2018',
    '' );
FILE_SCHEMA (( 'CONFIG_CONTROL_DESIGN' ));
ENDSEC;

DATA;
#1 = CARTESIAN_POINT ( 'NONE',  ( -20.21820404900189416, 20.91549295774646922, 4.700000000000000178 ) ) ;
#2 = ORIENTED_EDGE ( 'NONE', *, *, #196, .F. ) ;
#3 = AXIS2_PLACEMENT_3D ( 'NONE', #28, #175, #124 ) ;
#4 =( NAMED_UNIT ( * ) SI_UNIT ( $, .STERADIAN. ) SOLID_ANGLE_UNIT ( ) );
#5 = APPROVAL_STATUS ( 'not_yet_approved' ) ;
#6 = LINE ( 'NONE', #35, #158 ) ;
#7 = COORDINATED_UNIVERSAL_TIME_OFFSET ( 3, 0, .BEHIND. ) ;
#8 = VERTEX_POINT ( 'NONE', #195 ) ;
#9 = EDGE_CURVE ( 'NONE', #8, #64, #145, .T. ) ;
#10 = PERSON_AND_ORGANIZATION ( #180, #56 ) ;
#11 = PLANE ( 'NONE',  #3 ) ;
#12 = APPROVAL_DATE_TIME ( #143, #147 ) ;
#13 = APPROVAL_PERSON_ORGANIZATION ( #10, #147, #118 ) ;
#14 = PLANE ( 'NONE',  #99 ) ;
#15 = CARTESIAN_POINT ( 'NONE',  ( -20.21820404900189416, -39.08450704225352723, 4.700000000000000178 ) ) ;
#16 = CALENDAR_DATE ( 2018, 29, 10 ) ;
#17 = VECTOR ( 'NONE', #138, 1000.000000000000000 ) ;
#18 = CARTESIAN_POINT ( 'NONE',  ( -20.21820404900189416, 20.91549295774646922, -4.700000000000000178 ) ) ;
#19 = APPLICATION_PROTOCOL_DEFINITION ( 'international standard', 'config_control_design', 1994, #87 ) ;
#20 = APPROVAL_PERSON_ORGANIZATION ( #59, #88, #74 ) ;
#21 = ADVANCED_BREP_SHAPE_REPRESENTATION ( 'mÒo', ( #25, #166 ), #199 ) ;
#22 = LOCAL_TIME ( 23, 8, 16.00000000000000000, #134 ) ;
#23 = VECTOR ( 'NONE', #197, 1000.000000000000000 ) ;
#24 = CARTESIAN_POINT ( 'NONE',  ( -20.21820404900189416, -39.08450704225352723, -4.700000000000000178 ) ) ;
#25 = MANIFOLD_SOLID_BREP ( 'Ressalto-extrusão1', #126 ) ;
#26 = LINE ( 'NONE', #24, #201 ) ;
#27 = CC_DESIGN_PERSON_AND_ORGANIZATION_ASSIGNMENT ( #52, #189, ( #160 ) ) ;
#28 = CARTESIAN_POINT ( 'NONE',  ( -20.21820404900189416, 20.91549295774646922, 4.700000000000000178 ) ) ;
#29 = ORIENTED_EDGE ( 'NONE', *, *, #186, .F. ) ;
#30 = AXIS2_PLACEMENT_3D ( 'NONE', #48, #182, #100 ) ;
#31 = DIRECTION ( 'NONE',  ( -0.8454889030309711284, 0.5339929913879818413, -0.0000000000000000000 ) ) ;
#32 = DATE_AND_TIME ( #122, #171 ) ;
#33 = VECTOR ( 'NONE', #165, 1000.000000000000000 ) ;
#34 = PLANE ( 'NONE',  #111 ) ;
#35 = CARTESIAN_POINT ( 'NONE',  ( -20.21820404900189416, -39.08450704225352723, 4.700000000000000178 ) ) ;
#36 = ORIENTED_EDGE ( 'NONE', *, *, #154, .T. ) ;
#37 = FACE_OUTER_BOUND ( 'NONE', #121, .T. ) ;
#38 = ORIENTED_EDGE ( 'NONE', *, *, #70, .F. ) ;
#39 = LOCAL_TIME ( 23, 8, 16.00000000000000000, #7 ) ;
#40 = PERSON_AND_ORGANIZATION ( #180, #56 ) ;
#41 = FACE_OUTER_BOUND ( 'NONE', #117, .T. ) ;
#42 = SHAPE_DEFINITION_REPRESENTATION ( #71, #21 ) ;
#43 = LINE ( 'NONE', #204, #90 ) ;
#44 = DIRECTION ( 'NONE',  ( 0.0000000000000000000, -1.000000000000000000, 0.0000000000000000000 ) ) ;
#45 = DIRECTION ( 'NONE',  ( 0.0000000000000000000, -0.0000000000000000000, 1.000000000000000000 ) ) ;
#46 = DIRECTION ( 'NONE',  ( -0.8454889030309711284, 0.5339929913879818413, -0.0000000000000000000 ) ) ;
#47 = PRODUCT_RELATED_PRODUCT_CATEGORY ( 'detail', '', ( #115 ) ) ;
#48 = CARTESIAN_POINT ( 'NONE',  ( 0.0000000000000000000, 0.0000000000000000000, -4.700000000000000178 ) ) ;
#49 = ORIENTED_EDGE ( 'NONE', *, *, #9, .F. ) ;
#50 = CARTESIAN_POINT ( 'NONE',  ( -20.21820404900189416, 20.91549295774646922, 4.700000000000000178 ) ) ;
#51 = CC_DESIGN_PERSON_AND_ORGANIZATION_ASSIGNMENT ( #98, #150, ( #115 ) ) ;
#52 = PERSON_AND_ORGANIZATION ( #180, #56 ) ;
#53 = VERTEX_POINT ( 'NONE', #58 ) ;
#54 = APPROVAL ( #62, 'UNSPECIFIED' ) ;
#55 = DATE_TIME_ROLE ( 'creation_date' ) ;
#56 = ORGANIZATION ( 'UNSPECIFIED', 'UNSPECIFIED', '' ) ;
#57 = LINE ( 'NONE', #50, #17 ) ;
#58 = CARTESIAN_POINT ( 'NONE',  ( -20.21820404900189416, -39.08450704225352723, -4.700000000000000178 ) ) ;
#59 = PERSON_AND_ORGANIZATION ( #180, #56 ) ;
#60 = CC_DESIGN_APPROVAL ( #147, ( #67 ) ) ;
#61 = APPLICATION_CONTEXT ( 'configuration controlled 3d designs of mechanical parts and assemblies' ) ;
#62 = APPROVAL_STATUS ( 'not_yet_approved' ) ;
#63 = DESIGN_CONTEXT ( 'detailed design', #61, 'design' ) ;
#64 = VERTEX_POINT ( 'NONE', #146 ) ;
#65 = DIRECTION ( 'NONE',  ( -1.000000000000000000, 0.0000000000000000000, -0.0000000000000000000 ) ) ;
#66 = CARTESIAN_POINT ( 'NONE',  ( -20.21820404900189416, 20.91549295774646922, 4.700000000000000178 ) ) ;
#67 = PRODUCT_DEFINITION_FORMATION_WITH_SPECIFIED_SOURCE ( 'ANY', '', #115, .NOT_KNOWN. ) ;
#68 = ADVANCED_FACE ( 'NONE', ( #37 ), #11, .F. ) ;
#69 = FACE_OUTER_BOUND ( 'NONE', #81, .T. ) ;
#70 = EDGE_CURVE ( 'NONE', #184, #53, #112, .T. ) ;
#71 = PRODUCT_DEFINITION_SHAPE ( 'NONE', 'NONE',  #75 ) ;
#72 = APPROVAL_STATUS ( 'not_yet_approved' ) ;
#73 = VERTEX_POINT ( 'NONE', #159 ) ;
#74 = APPROVAL_ROLE ( '' ) ;
#75 = PRODUCT_DEFINITION ( 'UNKNOWN', '', #67, #63 ) ;
#76 = ORIENTED_EDGE ( 'NONE', *, *, #170, .F. ) ;
#77 = ORIENTED_EDGE ( 'NONE', *, *, #141, .T. ) ;
#78 = CC_DESIGN_PERSON_AND_ORGANIZATION_ASSIGNMENT ( #119, #132, ( #67 ) ) ;
#79 = UNCERTAINTY_MEASURE_WITH_UNIT (LENGTH_MEASURE( 1.000000000000000082E-05 ), #83, 'distance_accuracy_value', 'NONE');
#80 = CALENDAR_DATE ( 2018, 29, 10 ) ;
#81 = EDGE_LOOP ( 'NONE', ( #29, #76, #164 ) ) ;
#82 = DIRECTION ( 'NONE',  ( 1.000000000000000000, 0.0000000000000000000, 0.0000000000000000000 ) ) ;
#83 =( LENGTH_UNIT ( ) NAMED_UNIT ( * ) SI_UNIT ( .MILLI., .METRE. ) );
#84 = CC_DESIGN_APPROVAL ( #88, ( #160 ) ) ;
#85 = DIRECTION ( 'NONE',  ( 1.000000000000000000, 0.0000000000000000000, 0.0000000000000000000 ) ) ;
#86 = ORIENTED_EDGE ( 'NONE', *, *, #154, .F. ) ;
#87 = APPLICATION_CONTEXT ( 'configuration controlled 3d designs of mechanical parts and assemblies' ) ;
#88 = APPROVAL ( #72, 'UNSPECIFIED' ) ;
#89 = COORDINATED_UNIVERSAL_TIME_OFFSET ( 3, 0, .BEHIND. ) ;
#90 = VECTOR ( 'NONE', #44, 1000.000000000000000 ) ;
#91 = COORDINATED_UNIVERSAL_TIME_OFFSET ( 3, 0, .BEHIND. ) ;
#92 = PERSON_AND_ORGANIZATION_ROLE ( 'design_supplier' ) ;
#93 = EDGE_LOOP ( 'NONE', ( #103, #49, #177, #190 ) ) ;
#94 = CARTESIAN_POINT ( 'NONE',  ( -20.21820404900189416, -39.08450704225352723, 4.700000000000000178 ) ) ;
#95 = APPROVAL_DATE_TIME ( #32, #54 ) ;
#96 = ORIENTED_EDGE ( 'NONE', *, *, #9, .T. ) ;
#97 = CARTESIAN_POINT ( 'NONE',  ( 74.78179595099811650, -39.08450704225352723, 4.700000000000000178 ) ) ;
#98 = PERSON_AND_ORGANIZATION ( #180, #56 ) ;
#99 = AXIS2_PLACEMENT_3D ( 'NONE', #101, #203, #65 ) ;
#100 = DIRECTION ( 'NONE',  ( -1.000000000000000000, 0.0000000000000000000, -0.0000000000000000000 ) ) ;
#101 = CARTESIAN_POINT ( 'NONE',  ( 0.0000000000000000000, 0.0000000000000000000, 4.700000000000000178 ) ) ;
#102 = DIRECTION ( 'NONE',  ( 0.0000000000000000000, 0.0000000000000000000, 1.000000000000000000 ) ) ;
#103 = ORIENTED_EDGE ( 'NONE', *, *, #170, .T. ) ;
#104 = CARTESIAN_POINT ( 'NONE',  ( -20.21820404900189416, -39.08450704225352723, 4.700000000000000178 ) ) ;
#105 = DIRECTION ( 'NONE',  ( -0.5339929913879817303, -0.8454889030309711284, 0.0000000000000000000 ) ) ;
#106 = ADVANCED_FACE ( 'NONE', ( #41 ), #142, .F. ) ;
#107 = FACE_OUTER_BOUND ( 'NONE', #93, .T. ) ;
#108 = AXIS2_PLACEMENT_3D ( 'NONE', #1, #105, #179 ) ;
#109 = CALENDAR_DATE ( 2018, 29, 10 ) ;
#110 = CC_DESIGN_DATE_AND_TIME_ASSIGNMENT ( #174, #55, ( #75 ) ) ;
#111 = AXIS2_PLACEMENT_3D ( 'NONE', #15, #116, #45 ) ;
#112 = LINE ( 'NONE', #94, #194 ) ;
#113 = ORIENTED_EDGE ( 'NONE', *, *, #196, .T. ) ;
#114 = CARTESIAN_POINT ( 'NONE',  ( 0.0000000000000000000, 0.0000000000000000000, 0.0000000000000000000 ) ) ;
#115 = PRODUCT ( 'mão', 'mão', '', ( #137 ) ) ;
#116 = DIRECTION ( 'NONE',  ( 0.0000000000000000000, 1.000000000000000000, 0.0000000000000000000 ) ) ;
#117 = EDGE_LOOP ( 'NONE', ( #128, #86, #133, #96 ) ) ;
#118 = APPROVAL_ROLE ( '' ) ;
#119 = PERSON_AND_ORGANIZATION ( #180, #56 ) ;
#120 = FACE_OUTER_BOUND ( 'NONE', #123, .T. ) ;
#121 = EDGE_LOOP ( 'NONE', ( #198, #38, #2, #36 ) ) ;
#122 = CALENDAR_DATE ( 2018, 29, 10 ) ;
#123 = EDGE_LOOP ( 'NONE', ( #172, #113, #77 ) ) ;
#124 = DIRECTION ( 'NONE',  ( -0.0000000000000000000, 0.0000000000000000000, -1.000000000000000000 ) ) ;
#125 = CC_DESIGN_PERSON_AND_ORGANIZATION_ASSIGNMENT ( #131, #92, ( #67 ) ) ;
#126 = CLOSED_SHELL ( 'NONE', ( #106, #68, #185, #130, #183 ) ) ;
#127 = EDGE_CURVE ( 'NONE', #8, #73, #152, .T. ) ;
#128 = ORIENTED_EDGE ( 'NONE', *, *, #186, .T. ) ;
#129 = APPROVAL_DATE_TIME ( #157, #88 ) ;
#130 = ADVANCED_FACE ( 'NONE', ( #120 ), #14, .F. ) ;
#131 = PERSON_AND_ORGANIZATION ( #180, #56 ) ;
#132 = PERSON_AND_ORGANIZATION_ROLE ( 'creator' ) ;
#133 = ORIENTED_EDGE ( 'NONE', *, *, #127, .F. ) ;
#134 = COORDINATED_UNIVERSAL_TIME_OFFSET ( 3, 0, .BEHIND. ) ;
#135 = CC_DESIGN_APPROVAL ( #54, ( #75 ) ) ;
#136 = LOCAL_TIME ( 23, 8, 16.00000000000000000, #151 ) ;
#137 = MECHANICAL_CONTEXT ( 'NONE', #87, 'mechanical' ) ;
#138 = DIRECTION ( 'NONE',  ( 0.0000000000000000000, -1.000000000000000000, 0.0000000000000000000 ) ) ;
#139 = VECTOR ( 'NONE', #31, 1000.000000000000114 ) ;
#140 = PLANE ( 'NONE',  #30 ) ;
#141 = EDGE_CURVE ( 'NONE', #184, #8, #6, .T. ) ;
#142 = PLANE ( 'NONE',  #108 ) ;
#143 = DATE_AND_TIME ( #16, #176 ) ;
#144 = PERSON_AND_ORGANIZATION_ROLE ( 'creator' ) ;
#145 = LINE ( 'NONE', #97, #23 ) ;
#146 = CARTESIAN_POINT ( 'NONE',  ( 74.78179595099811650, -39.08450704225352723, -4.700000000000000178 ) ) ;
#147 = APPROVAL ( #5, 'UNSPECIFIED' ) ;
#148 = VECTOR ( 'NONE', #46, 1000.000000000000114 ) ;
#149 = EDGE_CURVE ( 'NONE', #156, #53, #43, .T. ) ;
#150 = PERSON_AND_ORGANIZATION_ROLE ( 'design_owner' ) ;
#151 = COORDINATED_UNIVERSAL_TIME_OFFSET ( 3, 0, .BEHIND. ) ;
#152 = LINE ( 'NONE', #181, #148 ) ;
#153 =( NAMED_UNIT ( * ) PLANE_ANGLE_UNIT ( ) SI_UNIT ( $, .RADIAN. ) );
#154 = EDGE_CURVE ( 'NONE', #73, #156, #155, .T. ) ;
#155 = LINE ( 'NONE', #66, #33 ) ;
#156 = VERTEX_POINT ( 'NONE', #18 ) ;
#157 = DATE_AND_TIME ( #169, #136 ) ;
#158 = VECTOR ( 'NONE', #202, 1000.000000000000000 ) ;
#159 = CARTESIAN_POINT ( 'NONE',  ( -20.21820404900189416, 20.91549295774646922, 4.700000000000000178 ) ) ;
#160 = SECURITY_CLASSIFICATION ( '', '', #191 ) ;
#161 = APPLICATION_PROTOCOL_DEFINITION ( 'international standard', 'config_control_design', 1994, #61 ) ;
#162 = APPROVAL_ROLE ( '' ) ;
#163 = APPROVAL_PERSON_ORGANIZATION ( #193, #54, #162 ) ;
#164 = ORIENTED_EDGE ( 'NONE', *, *, #149, .F. ) ;
#165 = DIRECTION ( 'NONE',  ( -0.0000000000000000000, -0.0000000000000000000, -1.000000000000000000 ) ) ;
#166 = AXIS2_PLACEMENT_3D ( 'NONE', #114, #102, #82 ) ;
#167 = CARTESIAN_POINT ( 'NONE',  ( -20.21820404900189416, 20.91549295774646922, -4.700000000000000178 ) ) ;
#168 = DATE_TIME_ROLE ( 'classification_date' ) ;
#169 = CALENDAR_DATE ( 2018, 29, 10 ) ;
#170 = EDGE_CURVE ( 'NONE', #53, #64, #26, .T. ) ;
#171 = LOCAL_TIME ( 23, 8, 16.00000000000000000, #91 ) ;
#172 = ORIENTED_EDGE ( 'NONE', *, *, #127, .T. ) ;
#173 = CC_DESIGN_DATE_AND_TIME_ASSIGNMENT ( #200, #168, ( #160 ) ) ;
#174 = DATE_AND_TIME ( #80, #22 ) ;
#175 = DIRECTION ( 'NONE',  ( 1.000000000000000000, 0.0000000000000000000, -0.0000000000000000000 ) ) ;
#176 = LOCAL_TIME ( 23, 8, 16.00000000000000000, #89 ) ;
#177 = ORIENTED_EDGE ( 'NONE', *, *, #141, .F. ) ;
#178 = CC_DESIGN_SECURITY_CLASSIFICATION ( #160, ( #67 ) ) ;
#179 = DIRECTION ( 'NONE',  ( 0.8454889030309711284, -0.5339929913879817303, 0.0000000000000000000 ) ) ;
#180 = PERSON ( 'UNSPECIFIED', 'UNSPECIFIED', 'UNSPECIFIED', ('UNSPECIFIED'), ('UNSPECIFIED'), ('UNSPECIFIED') ) ;
#181 = CARTESIAN_POINT ( 'NONE',  ( -20.21820404900189416, 20.91549295774646922, 4.700000000000000178 ) ) ;
#182 = DIRECTION ( 'NONE',  ( 0.0000000000000000000, 0.0000000000000000000, -1.000000000000000000 ) ) ;
#183 = ADVANCED_FACE ( 'NONE', ( #69 ), #140, .T. ) ;
#184 = VERTEX_POINT ( 'NONE', #104 ) ;
#185 = ADVANCED_FACE ( 'NONE', ( #107 ), #34, .F. ) ;
#186 = EDGE_CURVE ( 'NONE', #64, #156, #187, .T. ) ;
#187 = LINE ( 'NONE', #167, #139 ) ;
#188 = CC_DESIGN_PERSON_AND_ORGANIZATION_ASSIGNMENT ( #40, #144, ( #75 ) ) ;
#189 = PERSON_AND_ORGANIZATION_ROLE ( 'classification_officer' ) ;
#190 = ORIENTED_EDGE ( 'NONE', *, *, #70, .T. ) ;
#191 = SECURITY_CLASSIFICATION_LEVEL ( 'unclassified' ) ;
#192 = DIRECTION ( 'NONE',  ( -0.0000000000000000000, -0.0000000000000000000, -1.000000000000000000 ) ) ;
#193 = PERSON_AND_ORGANIZATION ( #180, #56 ) ;
#194 = VECTOR ( 'NONE', #192, 1000.000000000000000 ) ;
#195 = CARTESIAN_POINT ( 'NONE',  ( 74.78179595099811650, -39.08450704225352723, 4.700000000000000178 ) ) ;
#196 = EDGE_CURVE ( 'NONE', #73, #184, #57, .T. ) ;
#197 = DIRECTION ( 'NONE',  ( -0.0000000000000000000, -0.0000000000000000000, -1.000000000000000000 ) ) ;
#198 = ORIENTED_EDGE ( 'NONE', *, *, #149, .T. ) ;
#199 =( GEOMETRIC_REPRESENTATION_CONTEXT ( 3 ) GLOBAL_UNCERTAINTY_ASSIGNED_CONTEXT ( ( #79 ) ) GLOBAL_UNIT_ASSIGNED_CONTEXT ( ( #83, #153, #4 ) ) REPRESENTATION_CONTEXT ( 'NONE', 'WORKASPACE' ) );
#200 = DATE_AND_TIME ( #109, #39 ) ;
#201 = VECTOR ( 'NONE', #85, 1000.000000000000000 ) ;
#202 = DIRECTION ( 'NONE',  ( 1.000000000000000000, 0.0000000000000000000, 0.0000000000000000000 ) ) ;
#203 = DIRECTION ( 'NONE',  ( 0.0000000000000000000, 0.0000000000000000000, -1.000000000000000000 ) ) ;
#204 = CARTESIAN_POINT ( 'NONE',  ( -20.21820404900189416, 20.91549295774646922, -4.700000000000000178 ) ) ;
ENDSEC;
END-ISO-10303-21;
